Anti-flag - Death Of A Nation Chords & Tabs

 

Death Of A Nation Chords & Tabs

Anti-flag Chords & Tabs

Version: 1 Type: Tab 0 ratings
1 star 2 stars 3 stars 4 stars 5 stars
comments

Death Of A Nation Tab

   
Death of a Nation
Anti-Flag
Drop-D Tuning

---------------------------------------------------|
---------------------------------------------------|
---------------------------------------------------|
--------xxxx-6-6-6-------------3-3-3-3-3-----------|x2
-3-(3)--xxxx-4-4-4-6-6-6-5-5-5-1-1-1-1-1-1-1-1-1-1-|
-3-(3)-------------6-6-6-5-5-5-----------1-1-1-1-1-|

--------|  ------------------------------|
-----4--|  ------------------------------|
---1----|  ------------------------------|
-3------|  -------xxxx-6-6-6-------------|
--------|  -3-(3)-xxxx-4-4-4-6-6-6-5-5-5-|
--------|  -1-(1)------------4-4-4-3-3-3-|

-------------------| -------------------|   ---------------------|
-------------------| -------------------|   ---------------------|
-------------------| -------------------|   ---------------------|
-3-(x10)-----------| -----------6---6---|x3 -3-3-3-3-3-6-6-6-6-6-|
-1--------6-(x10)--| -3-3-1-3-3-4-6-4-6-|   -1-1-1-1-1-4-4-4-4-4-|
----------6--------| -3-3-1-3-3---6---6-|   ---------------------|

-----1--------------------------------|
-------1-2-4------------------------4-|
----------------------------------1---|
----------------------pickslide-3-----|
-3~----------3~---pickslide~~~~-------|
-3~----------3~---pickslide-----------|
[ Tab from: http://www.guitartabs.cc/tabs/a/anti_flag/death_of_a_nation_tab.html ]
--------------------------------------------------|
--------------------------------------------------|
--------------------------------------------------|
-------xxxx-6-6-6-------------3-3-3-3-3-----------|
-3-(3)-xxxx-4-4-4-6-6-6-5-5-5-1-1-1-1-1-5-5-5-5-5-|
-3-(3)------------6-6-6-5-5-5-----------5-5-5-5-5-|

----------------------------------------------|
----------------------------------------------|
----------------------------------------------|
-------xxxx-6-6-6-------------3-(x10)---------|
-3-(3)-xxxx-4-4-4-6-6-6-5-5-5-1-------6-(x10)-|
-3-(3)------------6-6-6-5-5-5---------6-------|

-------------------|   ---------------------|\
-------------------|   ---------------------| \
-------------------|   ---------------------|  \
-----------6---6---|x3 -3-3-3-3-3-6-6-6-6-6-|  /twice
-3-3-1-3-3-4-6-4-6-|   -1-1-1-1-1-4-4-4-4-4-| /
-3-3-1-3-3---6---6-|   ---------------------|/

---------| -----4/5-|    -1-1-------------| ---------| 
---------| -----2/3-|    -----1-1-2-2-4-4-| ---------| 
---------| ---------|    -----------------| ---------|
---------| ---------|x11 -----------------| ---------|
-3-(x14)-| -3-3-----|    -----------------| -3-(x8)--|
-3-------| -3-3-----|    -----------------| -3-------|
...pm      ....pm ^combine on 9th time^     ...pm  


------------------------------------------------|
---------------------------------------------2--|
------------------------------------------------|
-------xxxx-6-6-6-------------3-3-3-3-3--1-4----|
-3-(3)-xxxx-4-4-4-6-6-6-5-5-5-1-1-1-1-1---------|
-3-(3)------------6-6-6-5-5-5-------------------|
Comments