Anti Flag - Confused Youth Chords & Tabs

 

Confused Youth Chords & Tabs

Anti Flag Chords & Tabs

Version: 2 Type: Bass Tab 0 ratings
1 star 2 stars 3 stars 4 stars 5 stars
comments

Confused Youth Bass Tab

Anti-Flag
Confused Youth
Tabbed by: intense@westol.com

this is tabbed in normal antiflag tuning (half step down). if you're
regular tuning, just play everything one fret lower than what it says
on this tab

Intro:
Gb-----------2-2-0-2-0---------------0-0-0---------
Db---------------------3-2-----------------2-0-----
Ab-0-0-0-0-0-----------------------------------3-2-
Eb-------------------------0-0-0-0-0---------------

Verse:
Gb-------------------------------0-0-0---------
Db-------------------------------------2-0-----
Ab-0-0-0-0-0-0-0-0-0-0---------------------3-2-
Eb---------------------0-0-0-0-0---------------

Chorus:
Gb---------------------2-0-----0---------------------------14-12-------------------
Db-------------------------3-2---3-2-3-0-0-0-0-0-0-0-0-0-0-------15-14-12----------
Ab-0-0-0-0-0-0-0-0-0-0----------------------------------------------------15-14-12-
Eb---------------------------------------------------------------------------------

1st Bridge:
Gb-------------12-10-9--------------------------
Db-10h12-12-12-------------10-0---------12-0----
Ab---------------------8-8------8-10-10------10-  (2x)
Eb----------------------------------------------
[ Tab from: http://www.guitartabs.cc/tabs/a/anti_flag/confused_youth_btab_ver_2.html ]
Gb-------------12-10-9-12-10-9--------------------------
Db-10h12-12-12---------------------10-0---------12-0----
Ab-----------------------------8-8------8-10-10------10-
Eb------------------------------------------------------

Gb----------------12-10-12-14-14-14--------------------------
Ab-10h12-12-12--------------------------10-0---------12-0----
Db----------------------------------8-8------8-10-10------10-
Eb-----------------------------------------------------------

Gb----------------12-10-12-14-12-10--------------------------
Db-10h12-12-12--------------------------10-0---------12-0----
Ab----------------------------------8-8------8-10-10------10-
Eb-----------------------------------------------------------

Gb----------------12-10-12-14-14-14--------------------------
Db-10h12-12-12--------------------------10-0---------12-0----
Ab----------------------------------8-8------8-10-10------10-
Eb-----------------------------------------------------------

2nd Bridge:
Gb-2-2-2-2-2-2-2-2-----------------------------------------------5-5-5-5-5-5-
Db-----------------3-3-3-3-------------0-0-0-0-0-0-0-0-3-3-3-3-3-------------
Ab-------------------------3-3-3-3-3-3---------------------------------------
Eb---------------------------------------------------------------------------

3rd Bridge:
Gb-2-2-2-2-2-2-2-2-------------5-5-5-5-5-5-5-5-
Db-----------------3-3-3-3-3-3-----------------
Ab---------------------------------------------
Eb---------------------------------------------



Comments