Anti-flag - Confessions Of An Economic Hitman Chords & Tabs

 

Confessions Of An Economic Hitman Chords & Tabs

Anti-flag Chords & Tabs

Version: 1 Type: Tab

Confessions Of An Economic Hitman Tab

   
----------------------------------------------------------------------------
               CONFESSIONS OF AN ECONOMIC HITMAN – Anti-Flag
----------------------------------------------------------------------------
Tabbed by: Pandrew (corrections by RavenKing2005@gmail.com)
Email: pandrew947@gmail.com

Tuning: Standard (e,b,g,d,a,e)

This song is off of Anti-Flag’s new album For Blood and Empire,
kickass song, think this tab is close enough to the actual song,
please rate

Intro Part 1
e|---------------------------------------------------------------|
B|---------------------------------------------------------------|
G|----66----------------66-55~-----------------------------------|
D|-33-66-33---+3-----33-66-55~-----------------------------------|
A|-33-44-33--+3------33-44-33~-----------------------------------|
E|-11----11-+1-------11-------Pickslide--------------------------|

Guitar 2
e|---------------------------------------------------------------|
B|-----------------6...------------------------------------------|
G|---------------5-----------------------------------------------|
D|---------------------------------------------------------------|
A|----------------------------Pickslide--------------------------|
E|---------------------------------------------------------------|

Intro Part 2
Lead Guitar
e|---------------------------------------------------------------|
B|-6---4-4---6---4-4---6---4-4-------------4-6---4-4---6---4-4---|
G|---5-----5---5-----5---5-----5-5-5-5-3-5-----5-----5---5-------|
D|---------------------------------------------------------------|
A|---------------------------------------------------------------|
E|---------------------------------------------------------------|

e|------------3----3-3-4-----------------------------------------|
B|--6---4-4------4-----------------------------------------------|
G|5---5-----5----------------------------------------------------|
D|---------------------------------------------------------------|
A|---------------------------------------------------------------|
E|---------------------------------------------------------------|

Intro Part 2
Rhythm Guitar 
e|---------------------------------------------------------------|
B|---------------------------------------------------------------|
G|--------666666--------555555--------666666--------888888-------|
D|-333333-666666-666666-555555-333333-666666-666666-888888-------|
A|-333333-444444-666666-333333-333333-444444-666666-666666-------|
E|-111111--------444444--------111111--------444444--------------|

Verse 1
e|---------------------------------------------------------------|
B|---------------------------------------------------------------|
G|-----666---------666-555-----666-----666-888-----666-555555555-|
d|-333-666-333-333-666-555-333-444-333-666-888-333-666-555555555-|
a|-333-444-333-333-444-333-333-444-333-444-666-333-444-333333333-|
E|-111-----111-111---------111-----111---------111---------------|
PM                                                     ....
[ Tab from: http://www.guitartabs.cc/tabs/a/anti_flag/confessions_of_an_economic_hitman_tab.html ]
Chorus (play twice but do not play the 5-5-5 on 2ed time, just 
strum last chord longer)
e|---------------------------------------------------------------|
B|---------------------------------------------------------------|
G|--------666666--------555555----------------666666-------------|
D|-333333-666666-666666-555555---------333333-666666-666666------|
A|-333333-444444-666666-333333-4-3-1---333333-444444-666666------|
E|-111111--------444444--------------1-111111--------444444------|

e|---------------------------------------------------------------|
B|---------------------------------------------------------------|
G|-888888--------------------------------------------------------|
D|-888888-5-5-5--------------------------------------------------|
A|-666666--------------------------------------------------------|
E|---------------------------------------------------------------|

Repeat Intro Part 2

Verse 2
e|---------------------------------------------------------------|
B|---------------------------------------------------------------|
G|-----666---------666-555--------666666--------555555-----------|
D|-333-666-333-333-666-555-333333-666666-666666-555555-333333----|
A|-333-444-333-333-444-333-333333-444444-666666-333333-333333----|
E|-111-----111-111---------111111--------444444--------111111----|
PM                         .. ..  .. ..  .. ..  .. ..  .. ..                      

e|---------------------------------------------------------------|
B|---------------------------------------------------------------|
G|-666666--------555555------------------------------------------|
D|-666666-666666-555555------------------------------------------|
A|-444444-666666-333333------------------------------------------|
E|--------444444-------------------------------------------------|
PM .. ..  .. ..

Repeat Chorus Twice again not playing the 5-5-5 on the 2nd time

Interlude
e|---------------------------------------------------------------|
B|---------------------------------------------------------------|
G|------6666------5555------6666------8888--------6666-----------|
D|-3333-6666-6666-5555-3333-6666-6666-8888-333333-6666-666666----|
A|-3333-4444-6666-3333-3333-4444-6666-6666-333333-4444-666666----|
E|-1111------4444------1111------4444------111111------444444----|
PM                                         ...         ...     
    
e|---------------------------------------------------------------|
B|---------------------------------------------------------------|
G|-5555--------6666--------888888--------------------------------|
D|-5555-333333-6666-666666-888888--------------------------------|
A|-3333-333333-4444-666666-666666--------------------------------|
E|------111111------444444---------------------------------------|
PM      ...         ...

Repeat Chorus Once

Second Part of Chorus and Ending
e|-------------------------------------------------------------|
B|-------------------------------------------------------------|
G|--------666666--------555555----------------666666-----------|
D|-333333-666666-666666-555555---------333333-666666-666666----|
A|-333333-444444-666666-333333-4-3-1---333333-444444-666666----|
E|-111111--------444444--------------1-111111--------444444----|

e|-------------------------------------------------------------|
B|-------------------------------------------------------------|
G|-888888888888-666666-888888----------------------------------|
D|-888888888888-666666-888888-3~-3-----------------------------|
A|-666666666666-444444-666666-3~-3-----------------------------|
E|----------------------------1~-1-----------------------------|


| /  slide up
| \  slide down
| h  hammer-on
| p  pull-off
| +  harmonic
| x  Mute note
| ~  Let ring