Anti-flag - Confessions Of An Economic Hitman Chords & Tabs

 

Confessions Of An Economic Hitman Chords & Tabs

Anti-flag Chords & Tabs

Version: 1 Type: Bass Tab

Confessions Of An Economic Hitman Bass Tab

Track 10 on For Blood And Empire

Intro:

G|------------------------------------------------|
D|------------------------------------------------|
A|-------4-4-4--------------4-4-4-3-3-3-3-3-3-3-3-|
E|-1-1-1-------1-1-1--1-1-1-----------------------|

G|-----------------------------------------------------------------|
D|-----------------------------------------------------------------|
A|---------4-4-4-4---------3-3-3-3---------3-3-3-3---------6-6-6-6-|
E|-1-1-1-1---------4-4-4-4---------1-1-1-1---------4-4-4-4---------|

Verse:

G|--------------------------------------|
D|--------------------------------------|
A|-------4-4-4--------------4-4-4-3-3-3-|
E|-1-1-1-------1-1-1--1-1-1-------------|

G|-----------------------------------------------------------------
D|-----------------------------------------------------------------
A|-----------------4-4-4-4-4-4-4-4-----------------4-4-4-4-6-6-6-6-
E|-1-1-1-1-1-1-1-1-----------------1-1-1-1-1-1-1-1-----------------

G|-------------------------------------------------------------------|
D|-------------------------------------------------------------------|
A|-----------------4-4-4-4-4-4-4-4-3-3-3-3-3-3-3-3-3-3-3-3-3-3-3-3-3-|
E|-1-1-1-1-1-1-1-1---------------------------------------------------|

Chorus:

G|-------------------------------------------------------------------|
D|-------------------------------------------------------------------|
A|---------4-4-4-4---------3-3-3-4p3---------4-4-4-4---------6-6-6-6-|x2
E|-1-1-1-1---------4-4-4-4-----------1-1-1-1---------4-4-4-4---------|

Intro:

G|-----------------------------------------------------------------|
D|-----------------------------------------------------------------|
A|---------4-4-4-4---------3-3-3-3---------3-3-3-3---------6-6-6-6-|
E|-1-1-1-1---------4-4-4-4---------1-1-1-1---------4-4-4-4---------|

Verse:
[ Tab from: http://www.guitartabs.cc/tabs/a/anti_flag/confessions_of_an_economic_hitman_btab.html ]
G|--------------------------------------|
D|--------------------------------------|
A|-------4-4-4--------------4-4-4-3-3-3-|
E|-1-1-1-------1-1-1--1-1-1-------------|

G|-------------------------------------------------------------------------|
D|-------------------------------------------------------------------------|
A|---------4-4-4-3---------3-3-3-3---------4-4-4-3---------6-6-6-6-6-6-6-6-|
E|-1-1-1-1---------4-4-4-4---------1-1-1-1---------4-4-4-4-----------------|

Chorus:

G|-------------------------------------------------------------------|
D|-------------------------------------------------------------------|
A|---------4-4-4-4---------3-3-3-4p3---------4-4-4-4---------6-6-6-6-|x2
E|-1-1-1-1---------4-4-4-4-----------1-1-1-1---------4-4-4-4---------|

Bridge:

half-speed
G|-----------------------------------------------------------------|
D|-----------------------------------------------------------------|
A|---------4-4-4-4---------3-3-3-3---------4-4-4-4---------6-6-6-6-|
E|-1-1-1-1---------4-4-4-4---------1-1-1-1---------4-4-4-4---------|

G|-----------------------3-5-5-5-5-----------------------3-8-8-8---8-|
D|-----------------6-6-6---------------------------6-6-6---------8---|
A|-------3-4-4-4-4-----------------------3-4-4-4-4-------------------|
E|-1-1-1---------------------------1-1-1-----------------------------|

Chorus:

G|-------------------------------------------------------------------|
D|-------------------------------------------------------------------|
A|---------4-4-4-4---------3-3-3-4p3---------4-4-4-4---------6-6-6-6-|
E|-1-1-1-1---------4-4-4-4-----------1-1-1-1---------4-4-4-4---------|

G|-----------------------------------------------------------------------------------|
D|-----------------------------------------------------------------------------6-6-3-|
A|---------4-4-4-4---------3-3-3-4p3---------4-4-4-4---------6-6-6-6-6-6-4-4-4-------|
E|-1-1-1-1---------4-4-4-4-----------1-1-1-1---------4-4-4-4-------------------------|