Anti Flag - Captain Anarchy Chords & Tabs

 

Captain Anarchy Chords & Tabs

Anti Flag Chords & Tabs

Version: 1 Type: Tab 0 ratings
1 star 2 stars 3 stars 4 stars 5 stars
comments

Captain Anarchy Tab

Intro 
e|---------------------------------------------------------------------------| 
B|---------------------------------------------------------------------------| 
G|--------------------8xxxxxxxx----------------------------------------------| 
D|pick slide, then:---8xxxxxxxx----------------------------------------------| 
A|--------------------6xxxxxxxx----------------------------------------------| 
E|---------------------------------------------------------------------------| 

After that(also Chorus) - 
e|---------------------------------------------------------------------------| 
B|---------------------------------------------------------------------------| 
G|--8--6---------------------------------------------------------------------| 
D|--8--6--6------------------------------------------------------------------| 
A|--6--4--6------------------------------------------------------------------| 
E|--------4------------------------------------------------------------------| 
[ Tab from: http://www.guitartabs.cc/tabs/a/anti_flag/captain_anarchy_tab.html ]
Verses - 
e|---------------------------------------------------------------------------| 
B|---------------------------------------------------------------------------| 
G|--8xxx8xxx--6xx------------------------------------------------------------| 
D|--8xxx8xxx--6xx--6xxx------------------------------------------------------| 
A|--6xxx6xxx--4xx--6xxx------------------------------------------------------| 
E|-----------------4xxx------------------------------------------------------| 

Riff inbetween verses/solo - 
e|---------------------------------------| 
B|---------------------------------------| 
G|--8-6-----8-6-----10-8-6-8-6-----------| 
D|-------8-------8--------------8--------| 
A|---------------------------------------| 
E|---------------------------------------| 


Bridge - (at the the end of the bridge the riff is played palm muted) 
E|----------------------------------| 
B|----------------------------------| 
G|-3----6---------------------------| 
D|-3----6---------------------------| 
A|-1----4---------------------------| 
E|----------------------------------|
Comments