Anti Flag - Captain Anarchy Chords & Tabs

 

Captain Anarchy Chords & Tabs

Anti Flag Chords & Tabs

Version: 3 Type: Bass Tab 0 ratings
1 star 2 stars 3 stars 4 stars 5 stars
comments

Captain Anarchy Bass Tab

=============================
 Captain Anarchy - Anti-Flag
=============================

Super Easy. Half-step down tuning, as always. If this Tab isn't Prefect it's close.
 Have fun.

Intro
Gb---------------------------------4-4-4-4-4-4-4-4---9-9-9-9-9-9-9-9-
Db-------------------------------------------------------------------
Ab-7-7-7-7-7-7-7-7-7-7-7-7-7-7-7-7-----------------------------------
Eb-------------------------------------------------------------------

Pre-Chorus
Gb-----------------------------------------------------
Db-----------------------------------------------------
Ab-7-7-7-7-7-7-7-7---5-5-5-5-5-5-5-5---0-0-0-0-0-0-0-0-
Eb-----------------------------------------------------
                                                        (2x)
Gb-----------------------------------2-2-2-2-2-2-2-2-
Db---------------------------------------------------
Ab-7-7-7-7-7-7-7-7---5-5-5-5-5-5-5-5----------------- 
Eb---------------------------------------------------

Chorus
Gb-----------------------------------------------------
Db-----------------------------------------------------
Ab-7-7-7-7-7-7-7-7---5-5-5-5-5-5-5-5---0-0-0-0-0-0-0-0-  (x7)
Eb-----------------------------------------------------
[ Tab from: http://www.guitartabs.cc/tabs/a/anti_flag/captain_anarchy_btab_ver_3.html ]
Gb-9-9-9-9-9-9-9-9---7-7-7-7-7-7-7-7---2-2-2-2-2-2-2-2-
Db-----------------------------------------------------
Ab-----------------------------------------------------
Eb-----------------------------------------------------

Pre-Chorus

Chorus

Verse
Gb-----------------------------------  
Db-----------------------------------
Ab-2-2-2-2-2-2-2-2---5-5-5-5-5-5-5-5- (3x)
Eb-----------------------------------

Gb------------------------------------------------------------------------
Db------------------------------------------------------------------------
Ab-2-2-2-2-2-2-2-2---4-4-4-4-4-4-4-4---5-5-5-5-5-5-5-5---7-7-7-7-7-7-7-7--
Eb------------------------------------------------------------------------

Bridge
Gb-----------------------------------------------------
Db-----------------------------------------------------
Ab-7-7-7-7-7-7-7-7---5-5-5-5-5-5-5-5---0-0-0-0-0-0-0-0- (2x)
Eb-----------------------------------------------------

Gb-----------------------------------2-2-2-2-2-2-2-2-
Db---------------------------------------------------
Ab-7-7-7-7-7-7-7-7---5-5-5-5-5-5-5-5-----------------
Eb---------------------------------------------------

Gb-----------------------------------------------------
Db-----------------------------------------------------
Ab-7-7-7-7-7-7-7-7---5-5-5-5-5-5-5-5---0-0-0-0-0-0-0-0-
Eb-----------------------------------------------------

Chorus

Gb-9-9-9-9-9-9-9-9---7-7-7-7-7-7-7-7-7---2-2-2-2-2-2-2-2-
Db-------------------------------------------------------
Ab-------------------------------------------------------
Eb-------------------------------------------------------
Comments