Anti Flag - Anti Violent Chords & Tabs

 

Anti Violent Chords & Tabs

Anti Flag Chords & Tabs

Version: 2 Type: Bass Tab 0 ratings
1 star 2 stars 3 stars 4 stars 5 stars
comments

Anti Violent Bass Tab

   
Anti-Flag:
Anti-Violent
Tabbed by: intense@westol.com

this is tabbed in normal antiflag tuning (half step down). if you're
regular tuning, just play everything one fret lower than what it says
on this tab

Intro:
Gb---7-------7---------7-7---------7-7---7-7---------7-7---------7-------7---
Db-------7-7---------------7-----7-----7-----7-2---------7-----------7-7-----
Ab-5---5-------2-----------------------------------------------5---5-------2-
Eb---------------------------------------------------------------------------

Verse:
Gb-------------------------------------------------------------7---
Db---------------------------------------------------------7-7---7-
Ab-2-2-2-2-2-2-2-2---------------------------------5-5-5-5---------
Eb-----------------3-3-3-3-3-3-3-3-0-0-0-0-0-0-0-0-----------------

Chorus:
Gb-----------------------------------------------
Db-----------------------------------------------
Ab-----------------------------------------------
Eb-3-3-3-3-3-3-5-5-5-5-5-5-7-7-7-7-7-5-7-7-7-7-7-
[ Tab from: http://www.guitartabs.cc/tabs/a/anti_flag/anti_violent_btab_ver_2.html ]
Gb---------------------------------------------------------
Db-------------------------------------------------7h9-9-9-
Ab-------------5-5-5-5-5-5---------5h7-7-7-7h9-9-9---------
Eb-3-3-3-3-3-3-------------5h7-7-7-------------------------

Gb-----------------------------------------------
Db-----------------------------------------------
Ab-----------------------------------------------
Eb-3-3-3-3-3-3-5-5-5-5-5-5-7-7-7-7-7-5-7-7-7-7-7-

Gb-----------
Db-----------
Ab-------5-5-
Eb-3-3-------

Beginning of Bridge:
Gb---------------------------------------------
Db-------------------------------------7-7-9-9-
Ab-----------------------------7-7-9-9---------
Eb-7-7-7-7-7-7-7-7-7-7-7-10-10-----------------

Bridge:
Gb--------------------------------------------------
Db--------------------------------------------------
Ab---------------------7-7-7-7-7-7-5-5--9-9-9-9-9-9-
Eb-7-7-7-7-7-7-7-7-7-7------------------------------

Ending of Bridge
Gb-----------------------------------------------
Db---------------------------------------7-7-9-9-
Ab-------------------------7-7-9-9-10-10---------
Eb-7-7-7-7-7-7-7-9-9-10-10-----------------------
Comments