Anti-flag - Angry Young And Poor Chords & Tabs

 

Angry Young And Poor Chords & Tabs

Anti-flag Chords & Tabs

Version: 2 Type: Bass Tab

Angry Young And Poor Bass Tab

Intro:
G------------------------------------11-11-9-9-8-8-6-----------------------|
D(thats-11-not-1's)-1111111111111111---------------------------------------|
A--------------------------------------------------------7-----9-----------|
E-999999999999---------------------------------------5-5---7-7----9--9-9-9-|

G-------------------------------------------------------------------|
D-------------------------------------------------------------------|
A-----11-11-9-9-7-7-9-9-7-7-6-6---------7-7-5-5-4-4-----9-9-7-7-6-6-| x2
E-9-9---------------------------9-9-5-5-------------7-7-------------|


Verse:
G------------------------------------------------|
D-------------------9-9-7-7-6-6------------------|
A-----11-11-9-9-7-7-------------7-7------7-----9-|
E-9-9--------------------------------5-5---7-7---|

G------------------------------------------------|
D---11-9-----------------------------------------|
A--------11-12-11-9----------7-----9-------------|
E-9-----------------12---5-5---7-7---------------|

G-------------------------------------------------|
D-11-9---------------9----------------------------|
A------11------9--12---------7-----9--------------|
E---------9-11-----------5-5---7-7----------------|

G---------------------------------------------------------|
D---------------------------------9-9-11-11---------------|
A-----------------9-9-11-11-12-12-------------------------|
E-9-9-11-11-12-12---------------------------555555-777777-|


Pre Chorus:
G------------------------------------------------------------|
D------------------------------------------------------------|
A-----11-11-9-9-7-7-----7-7-5-5-4-4--------------7-7-----7-7-|
E-9-9---------------5-5-------------0-5-7-9--7-7-----0-0-----|

G------------------------------------------------------------|
D------------------------------------------------------------|
A-----11-11-9-9-7-7-----7-7-5-5-4-4----------9-9-7-7-6-6-----|
E-9-9---------------5-5-------------0-5-7-9--------------7-7-|


Chorus:
G----------------------------------------|
D--------------------9-9-----------------|
A------7------7--------------7-7-----7-7-|
E-9999---5555---0000-----7-7-----0-0-----|

Verse x1

Pre Chorus x1

chorus x1

chorus varitation:
G-----------------|
D-----------------|
A-------7-------7-|
E-999-9---555-5---|

chorus x1
[ Tab from: http://www.guitartabs.cc/tabs/a/anti_flag/angry_young_and_poor_btab_ver_2.html ]
Solo:    (has a reverb and tremelo effect on)
G----------------------------------------|
D-----11-11-11------11-11-11-------------|
A----------------------------------------|
E-9-------------9------------------------|

G--------14-14-13-13-11-11------11-11------------------------------------------11-11-13-13-14-14------------|
D-11-11--------------------14-14-----14-14-13-13-------------11-11-13-13-14-14------------------------------|
A------------------------------------------------12-12-14-14---------------------------------------7-----9--|
E----------------------------------------------------------------------------------------------5-5---7-7----|

G---------------------------------------------------9-9-8-8-9-9-8-8-11-11-13-13--------------------------|
D-11-11-9-9-----------11-11-9-9-----------11-11-9-9------------------------------------------------------|
A-----------11-11-9-9-----------11-11-9-9-----------------------------------------7---9---7---9-----7----|
E-------------------------------------------------------------------------------5---7---5---7---5-5---7--|

Verse:
G------------------------------------------------|
D-------------------9-9-7-7-6-6------------------|
A-----11-11-9-9-7-7-------------7-7------7-----9-|
E-9-9--------------------------------5-5---7-7---|

G------------------------------------------------|
D---11-9-----------------------------------------|
A--------11-12-11-9----------7-----9-------------|
E-9-----------------12---5-5---7-7---------------|

G-------------------------------------------------|
D-11-9---------------9----------------------------|
A------11------9--12---------7-----9--------------|
E---------9-11-----------5-5---7-7----------------|

G---------------------------------------------------------|
D---------------------------------9-9-11-11---------------|
A-----------------9-9-11-11-12-12-------------------------|
E-9-9-11-11-12-12---------------------------555555-777777-|

outro:
G-------------------------------------------------------------------|
D-------------------------------------------------------------------|
A-----11-11-9-9-7-7-9-9-7-7-6-6---------7-7-5-5-4-4-----9-9-7-7-6-6-| x1
E-9-9---------------------------9-9-5-5-------------7-7-------------|

G---------------------------------------------=
D---------------------------------------------= FIN
A-----11-11-9-9-7-7-9-9-7-7-6-6-------7--5--4-=
E-9-9---------------------------9--5----------=