Anti Flag - A New Kind Of Army Chords & Tabs

 

A New Kind Of Army Chords & Tabs

Anti Flag Chords & Tabs

Version: 4 Type: Tab 0 ratings
1 star 2 stars 3 stars 4 stars 5 stars
comments

A New Kind Of Army Tab

E------------------------------------------------|
B------------------------------------------------|
G--6-----------9-----8-----6-----------9-----8---|
D--6-----7-----9-----8-----6-----7-----9-----8---| INTRO
A--4-----7-----7-----6-----4-----7-----7-----6---|
E--------5-----------------------5---------------|

E------------------------------------------------------------------|
B------------------------------------------------------------------|
G-6-6-6-6-6-6-6-6-----------------9-9-9-9-9-9-9-9-8-8-8-8-8-8-8-8--|
D-6-6-6-6-6-6-6-6-7-7-7-7-7-7-7-7-9-9-9-9-9-9-9-9-8-8-8-8-8-8-8-8--|
A-4-4-4-4-4-4-4-4-7-7-7-7-7-7-7-7-7-7-7-7-7-7-7-7-6-6-6-6-6-6-6-6--|
E-----------------5-5-5-5-5-5-5-5----------------------------------|

E--------------------------------------4-4--------------4-4----------|
B----------------------------------4-4-----5-5-4-4--3-3-----5-5-4-4--|
G-6-6-6-6-6-6-6-6----------------------------------------------------|
D-6-6-6-6-6-6-6-6-7-7-7-7-7-7-7-7------------------------------------|
A-4-4-4-4-4-4-4-4-7-7-7-7-7-7-7-7------------------------------------|
E-----------------5-5-5-5-5-5-5-5------------------------------------|

E-------------------------------------4-4--------------4-4----------|
B---------------------------------4-4-----5-5-4-4--3-3-----5-5-4-4--|
G-6-6-6-6-6-6-6-6---------------------------------------------------|
D-6-6-6-6-6-6-6-6-7-7-7-7-7-7-7-7-----------------------------------| X2
A-4-4-4-4-4-4-4-4-7-7-7-7-7-7-7-7-----------------------------------|
E-----------------5-5-5-5-5-5-5-5-----------------------------------|

E------------------------------------------------------------------|
B------------------------------------------------------------------|
G-6-6-6-6---------9-9-9-9-8-8-8-8-6-6-6-6---------9-9-9-9-8-8-8-8--|
D-6-6-6-6-7-7-7-7-9-9-9-9-8-8-8-8-6-6-6-6-7-7-7-7-9-9-9-9-8-8-8-8--| X3
A-4-4-4-4-7-7-7-7-7-7-7-7-6-6-6-6-4-4-4-4-7-7-7-7-7-7-7-7-6-6-6-6--|
E---------5-5-5-5-------------------------5-5-5-5------------------|

E------------------------------------|
B------------------------------------|
G-6-6-6-6---------9-9-9-9-8-8-8-8----|
D-6-6-6-6-7-7-7-7-9-9-9-9-8-8-8-8----| X4
A-4-4-4-4-7-7-7-7-7-7-7-7-6-6-6-6----|
E---------5-5-5-5--------------------|

E-------------------------------------4-4--------------4-4----------|
B---------------------------------4-4-----5-5-4-4--3-3-----5-5-4-4--|
G-6-6-6-6-6-6-6-6---------------------------------------------------|
D-6-6-6-6-6-6-6-6-7-7-7-7-7-7-7-7-----------------------------------| X2
A-4-4-4-4-4-4-4-4-7-7-7-7-7-7-7-7-----------------------------------|
E-----------------5-5-5-5-5-5-5-5-----------------------------------|

E------------------------------------------------------------------|
B------------------------------------------------------------------|
G-6-6-6-6---------9-9-9-9-8-8-8-8-6-6-6-6---------9-9-9-9-8-8-8-8--|
D-6-6-6-6-7-7-7-7-9-9-9-9-8-8-8-8-6-6-6-6-7-7-7-7-9-9-9-9-8-8-8-8--|
A-4-4-4-4-7-7-7-7-7-7-7-7-6-6-6-6-4-4-4-4-7-7-7-7-7-7-7-7-6-6-6-6--|
E---------5-5-5-5-------------------------5-5-5-5------------------|

E---------------------------9--9--9--9--9--9--9--9--9--9--9--9--9--9--9--9--|
B---------------------------11-11-11-11-11-11-11-11-11-11-11-11-11-11-11-11-|
G-6-----------6-------------------------------------------------------------|
D-6-----------6-------------------------------------------------------------|
A-4-----------4-------------------------------------------------------------|
E---------------------------------------------------------------------------|
[ Tab from: http://www.guitartabs.cc/tabs/a/anti_flag/a_new_kind_of_army_tab_ver_4.html ]
E------9-12-9--------------------------------9-   I----------9-|
B----9--------9-12-9-----9--9--9---------------   I------------|
G-11------------------11-------------11-11-9---   I--11-11-9---|
D---------------------------------11-----------   I------------| X8
A-----------------------------------------------  I------------|
E-----------------------------------------------  I------------|

E----------------------------------------------------------|
B-12-12-12-12-12-------------------------------------------|
G----------------11-9---------------9----11-----9------6---|
D----------------------11--9---11--------------------------|
A----------------------------------------------------------|
E----------------------------------------------------------|

E----------------------------------|
B----------------------------------|
G-6-6-6-6---------9-9-9-9-8-8-8-8--|
D-6-6-6-6-7-7-7-7-9-9-9-9-8-8-8-8--| X4
A-4-4-4-4-7-7-7-7-7-7-7-7-6-6-6-6--|
E---------5-5-5-5------------------|

E------------------------------------------------------------------|
B------------------------------------------------------------------|
G-6-6-6-6---------9-9-9-9-8-8-8-8-6-6-6-6---------9-9-9-9-8-8-8-8--|
D-6-6-6-6-7-7-7-7-9-9-9-9-8-8-8-8-6-6-6-6-7-7-7-7-9-9-9-9-8-8-8-8--| X3
A-4-4-4-4-7-7-7-7-7-7-7-7-6-6-6-6-4-4-4-4-7-7-7-7-7-7-7-7-6-6-6-6--|
E---------5-5-5-5-------------------------5-5-5-5------------------|

E-------------------------------------4-4--------------4-4----------|
B---------------------------------4-4-----5-5-4-4--3-3-----5-5-4-4--|
G-6-6-6-6-6-6-6-6---------------------------------------------------|
D-6-6-6-6-6-6-6-6-7-7-7-7-7-7-7-7-----------------------------------| X4
A-4-4-4-4-4-4-4-4-7-7-7-7-7-7-7-7-----------------------------------|
E-----------------5-5-5-5-5-5-5-5-----------------------------------|

E-----------------------  I------------------------------------------|
B-----------------------  I------------------------------------------|
G-6-----------6---------  I---6-----6-6-6-6-6-6-6-6-6-6-6-6-6-6-6-6--|
D-6-----------6---------  I---6--------------------------------------| X5
A-4-----------4---------  I---4--------------------------------------|
E-----------------------  I------------------------------------------|

E------------------------------------------------------------------|
B------------------------------------------------------------------|
G-6-6-6-6---------9-9-9-9-8-8-8-8-6-6-6-6---------9-9-9-9-8-8-8-8--|
D-6-6-6-6-7-7-7-7-9-9-9-9-8-8-8-8-6-6-6-6-7-7-7-7-9-9-9-9-8-8-8-8--| X2
A-4-4-4-4-7-7-7-7-7-7-7-7-6-6-6-6-4-4-4-4-7-7-7-7-7-7-7-7-6-6-6-6--|
E---------5-5-5-5-------------------------5-5-5-5------------------|

E--------------------|
B--------------------|
G-6-6-6-6-6-6-6-6-6--|
D-6-6-6-6-6-6-6-6-6--| X4
A-4-4-4-4-4-4-4-4-4--|
E--------------------|

E-------------------------------------4-4--------------4-4----------|
B---------------------------------4-4-----5-5-4-4--3-3-----5-5-4-4--|
G-6-6-6-6-6-6-6-6---------------------------------------------------|
D-6-6-6-6-6-6-6-6-7-7-7-7-7-7-7-7-----------------------------------| X4
A-4-4-4-4-4-4-4-4-7-7-7-7-7-7-7-7-----------------------------------|
E-----------------5-5-5-5-5-5-5-5-----------------------------------|

E-----------------------------------------------|
B-----------------------------------------------|
G-6-6--6-6--6-6--6-6--6-6--6-6--6-6--6-6----6---| END
D-----------------------------------------------|
A-----------------------------------------------|
E-----------------------------------------------|

AUSROTTENPUNK911@AOL.COM   if you want to tell me shit then email me
Comments