Anti Flag - A New Kind Of Army Chords & Tabs

 

A New Kind Of Army Chords & Tabs

Anti Flag Chords & Tabs

Version: 2 Type: Tab 0 ratings
1 star 2 stars 3 stars 4 stars 5 stars
comments

A New Kind Of Army Tab

   
The other tabs on this sight are horrible.....sorry but here is a better version
Album: New Kind of Army
Artist: Anti-Flag
Song: A New Kind of Army
Tabbed By: JustnHav
Key: 
  Hammer-on = h
  pull-off =  p
  bend =      b
  vibrato =   v
  slide up =  /
  slide down= \

intro:   
e|--------------------------------------------------------------------|
b|--------------------------------------------------------------------|
g|--6---------9-------------------------------------------------------|
d|--6----7----9----9--------------------------------------------------|
a|--4----7----7----6----x2--------------------------------------------|
e|-------5------------------------------------------------------------|
         strum each one time

  verse 1:
e|--------------------------------------------------------------------|
b|--------------------------------------------------------------------|
g|--66666666------------99999999--------------------------------------|
d|--66666666--77777777--99999999--99999999----------------------------|
a|--44444444--77777777--77777777--66666666--x2------------------------|
e|------------55555555------------------------------------------------|
   -----palm mute-----  don't p.m. on 1 and 4 then 1 and 3

  verse 2:
e|--------------------------------------------------------------------|
b|-----------------------------------------------lead for same part---|
g|--6-6-6-66------------9-9-9-99-------------------9-8-6---9-8-6------|
d|--6-6-6-66--7-7-7-77--9-9-9-99--9-9-9-99-------7-------5------------|
a|--4-4-4-44--7-7-7-77--7-7-7-77--6-6-6-66--x2------------------------|
e|------------5-5-5-55------------------------------------------------|
 "1...2...1..2..3..4"

[ Tab from: http://www.guitartabs.cc/tabs/a/anti_flag/a_new_kind_of_army_tab_ver_2.html ]
 
e|---------------------------------------------------------9h12p9--------------|
B|-9---9---9---9---9---9---9---9---9---9---9---9---9-----9--------9h12p9-------|
G|11b-11b-11b-11b-11b-11b-11b-11b-11b-11b-11b-11b-11b-11-----------------11-9--|
D|-----------------------------------------------------------------------------|
A|-----------------------------------------------------------------------------|
E|-----------------------------------------------------------------------------|

            Note: Im almost sure on this part, just mess around with it.
e|-----------------------------------9-----------------9-----------------9-----|
B|-----------------------------------------------------------------------------|
G|----9-9b(11)r9-----11b(13)r11p9------11b(13)r11p9------11b(13)r11p9----------|
D|-11------------11---------------11----------------11----------------11-------|
A|-----------------------------------------------------------------------------|
E|-----------------------------------------------------------------------------|

e|-----------------9------------------9------------------9-----------------9---|
B|-----------------------------------------------------------------------------|
G|-11b(13)r11p9-------11b(13)r11p9-------11b(13)r11p9------11b(13)r11p9--------|
D|--------------11-----------------11-----------------11----------------11-----|
A|-----------------------------------------------------------------------------|
E|-----------------------------------------------------------------------------|

e|-----------------9-----------------------------------------------------------|
B|-----------------------12b--12b--12b--12b--12b-------------------------------|
G|-11b(13)r11p9-----------------------------------11-9-------------------------|
D|--------------11-------------------------------------11-9~----9-11~----9-11~-|
A|-----------------------------------------------------------------------------|
E|-----------------------------------------------------------------------------|

e|-----------------------------------------------------------------------------|
B|-----------------------------------------------------------------------------|
G|-9-11~-----9-6~---6\---------------------------------------------------------|
D|-----------------------------------------------------------------------------|
A|-----------------------------------------------------------------------------|
E|-----------------------------------------------------------------------------|

thats it! yep yep aight
Comments