Anti Flag - 911 For Peace Chords & Tabs

 

911 For Peace Chords & Tabs

Anti Flag Chords & Tabs

Version: 2 Type: Bass Tab 0 ratings
1 star 2 stars 3 stars 4 stars 5 stars
comments

911 For Peace Bass Tab

Intro:
G|------------------------------------------------------|
D|------------------------------------------------------|
A|-----4-4-4-----6-6-6------4-4-4-4-4-4-4-4-----6-6-6-6-|
E|1-1-1-----4-4-4------1-1-1---------------4-4-4--------|
Interlude: x2
-|-----------------------------------------------------|
-|3-6-6-5-5-3-3-6-6-5-5-8-8----------------6-6-5-5-5---|
-|-------------4------------6-6-4-4-5-5-6-6--------6---|
-|-------------------------4---------------------------|
Verse: bass doesnt start until Justin says "but short"x2
-|-----------------------------------------------------------|
-|-----------------------------------------------------------|
-|-------------------------------8-8-8-8-8-8-8-8-------4-4-4-|
-|1-1-1-1-1-1-1-1-1-1-1-1-1-1-1-1---------------4-4-4-4------|
[ Tab from: http://www.guitartabs.cc/tabs/a/anti_flag/911_for_peace_btab_ver_2.html ]
Chorus: Same as interlude
Second We are all human part:
-|-----------------------------------------------------|
-|-----------------------------------------------------|
-|---------4-4-4-4-4---------6-------------------------|
-|1-1-1-1-1---------4-4-4-4-4--------------------------|
Verse2:
-|---------------------|
-|---------------------|
-|-----4-4-4-----6-6---|6(x2)
-|1-1-1-----4-4-4------|
Then:
-|----------------------------------------------------------------------|
-|----------------------------------------------------------------------|
-|---------------4-4-4-----6-6-6--------------4-4-4-4-4-4-4-4-----6-6-6-|
-|1-1-1-1-1~(x2)------4-4-4-----1-1-1-1-1~(x2)---------------4-4-4------|
Breakdown(isnt everybody tired):
-|-----------------------------------------------------|
-|-----------------------------------------------------|
-|---------4-4-4-6-(x4)-4-4-4-6-4-6-4-6~---------------|
-|1-1-1-1-1-----4------------4---4-6-4-----------------|

Martin luther king i have a dream excert:
-|---------------------|
-|---------------------|
-|-----4(x8)-----6-6---|6(x2)
-|1(x16)----4-4-4------|
then:
-|--------------------|
-|--------------------|
-|----4(x8)---6(x8)---|(x2)
-|1(x8)---4(x8)-------|
Line Up
Intro
Interlude
Verse
Chorus
Human part
Interlude
Verse2
Chorus
Human part
Breakdown
MLK Speech
Chorus
Human partx2
Comments