Anti Flag - 911 For Peace Chords & Tabs

 

911 For Peace Chords & Tabs

Anti Flag Chords & Tabs

Version: 1 Type: Bass Tab 0 ratings
1 star 2 stars 3 stars 4 stars 5 stars
comments

911 For Peace Bass Tab

Tabbed by: Stefan Rocca

G|--------------------------------------------------------------------------|
D|-3-3-3--------------------------3-3-3-------------------------------------|
A|---------4-4-4----------6-6-6----------4-4-4-4-4-4-4-4-----------6-6-6-6--|
E|---------------4-4-4------------------------------------4-4-4-4-----------|
play this bar once

G|--------------------------------------------------------------------------|
D|--------------------------------------------------------------------------|
A|--------------------4-4-4-4-4-4-4-4---------------------6-6-6-6-6-6-6-6---|
E|-1-1-1-1-1-1-1-1----------------------4-4-4-4-4-4-4-4---------------------|
play this bar 2 times

G|--------------------------------------------------------------------------|
D|-3-3-3--------------------------3-3-3-------------------------------------|
A|---------4-4-4---------6-6-6-----------4-4-4----------6-6-6---------------|
E|----------------4-4-4-------------------------4-4-4-----------------------|
play this bar once

G|--------------------------------------------------------------------------|
D|--------------------------------------------------------------------------|
A|--------------------4-4-4-4-4-4-4-4----------------6-6-6-6----------------|
E|-1111111111111111----------------------4-4-4-4----------------------------|
play this bar 2 times

G|--------------------------------------------------------------------------|
D|-3--66-55-33------66-55-88-------------------66-55------------------------|
A|---------------4---------------66-44-33---6--------66---------------------|
E|----------------------------4---------------------------------------------|
play this bar 4 times

G|--------------------------------------------------------------------------|
D|--------------------------------------------------------------------------|
A|--------------------4-4-4-4-4-4-4-4---------------------6-6-6-6-6-6-6-6---|
E|-1-1-1-1-1-1-1-1----------------------4-4-4-4-4-4-4-4---------------------|
play this bar 2 times

G|--------------------------------------------------------------------------|
D|-3-3-3--------------------------3-3-3-------------------------------------|
A|---------4-4-4---------6-6-6-----------4-4-4----------6-6-6---------------|
E|----------------4-4-4-------------------------4-4-4-----------------------|
play this bar once

G|--------------------------------------------------------------------------|
D|-333-2-----------------------6-6-6----------------------------------------|
A|-------4-3--4-3-1----4-4-4----------6-6-6---------------------------------|
E|------------------4-------------------------------------------------------|
play this bar once
[ Tab from: http://www.guitartabs.cc/tabs/a/anti_flag/911_for_peace_btab.html ]
G|--------------------------------------------------------------------------|
D|-3--2-3--6--5-6--8--6-8-10-10---------------------------------------------|
A|---------------------------------4-4-4-4-4-4-4-4----------6-6-6-6---------|
E|-------------------------------------------------4-4-4-4------------------|
play this bar once

G|--------------------------------------------------------------------------|
D|-3--66-55-33------66-55-88-------------------66-55------------------------|
A|---------------4---------------66-44-33---6--------66---------------------|
E|----------------------------4---------------------------------------------|
play this bar 4 times
 
G|--------------------------------------------------------------------------|
D|-3-3-3-3-3-3-3-3-3------------------------------6-6-6-6-------------------|
A|--------------------------------4-4-4-4-4-4-4-4---------6-6-6-6-----------|
E|-------------------1-1-1-1-1-1--------------------------------------------|
play this bar once 

G|--------------------------------------------------------------------------|
D|-3-3-3-3-3-3-3-3-3--------------------------------------------------------|
A|--------------------------------4-4-4-4-4-4-4-4---------6-6-6-6-----------|
E|-------------------1-1-1-1-1-1------------------4-4-4-4-------------------|
play this bar once 

G|--------------------------------------------------------------------------|
D|-3-3-3-3-3-3-3-3-3------------------------------6-6-6-6-------------------|
A|--------------------------------4-4-4-4-4-4-4-4---------6-6-6-6-----------|
E|-------------------1-1-1-1-1-1--------------------------------------------|
play this bar once 

G|--------------------------------------------------------------------------|
D|-3-3-3-3-3-3-3-3-3--------------------------------------------------------|
A|--------------------------------4-4-4-4-4-4-4-4---------6-6-6-6-----------|
E|-------------------1-1-1-1-1-1------------------4-4-4-4-------------------|
play this bar once 

G|--------------------------------------------------------------------------|
D|--------------------------------------------------------------------------|
A|-4-4-4-4-4-4-4-4---------6-6-6-6------------------------------------------|
E|-----------------4-4-4-4--------------------------------------------------|
play this bar once

G|--------------------------------------------------------------------------|
D|---------6-6-6-6----------------------------6-6-6-6-----------------------|
A|-4-4-4-4---------6-6-6-6--3-3-3-3--4-4-4-4-----------6--------------------|
E|--------------------------------------------------------------------------|
play this bar once

G|--------------------------------------------------------------------------|
D|--------------------------------------------------------------------------|
A|--------------------4-4-4-4-4-4-4-4---------------------6-6-6-6-6-6-6-6---|
E|-1-1-1-1-1-1-1-1----------------------4-4-4-4-4-4-4-4---------------------|
play this bar 6 times

G|--------------------------------------------------------------------------|
D|-3--66-55-33------66-55-88-------------------66-55------------------------|
A|---------------4---------------66-44-33---6--------66---------------------|
E|----------------------------4---------------------------------------------|
play this bar 5 times

Tabbed by: Stefan Rocca
Comments