Anthrax - London Chords & Tabs

 

London Chords & Tabs

Anthrax Chords & Tabs

Version: 1 Type: Bass Tab 0 ratings
1 star 2 stars 3 stars 4 stars 5 stars
comments

London Bass Tab

Artist -- Anthrax
Song -- London
Album -- Airheads Soundtrack
Bassist -- Frank Bello
Tabbed by -- LedZeplica

This is a totally simple song. 

G|-------------------------------------------------
D|-------------------------------------------------
A|---------------------------------------------------
E|--2-2-2-0-2-0-2-5/----2-2-2-0-2-0-2-2-5

[ Tab from: http://www.guitartabs.cc/tabs/a/anthrax/london_btab.html ]
"...think you made the right decision this time"
G|---------------------------------------------
D|------------------------2-------------------
A|--2-----------------------------------------
E|---------------------------------------------

Then there's one little bridge that goes like this...
G|----------------------------------------
D|----------0-2---------0-2------------
A|--------------4------------------------
E|--2------------------------------------

Repeat a bunch of times and then finish with the main riff again.

Comments