Anthrax - Inside Out Chords & Tabs

 

Inside Out Chords & Tabs

Anthrax Chords & Tabs

Version: 1 Type: Tab 0 ratings
1 star 2 stars 3 stars 4 stars 5 stars
comments

Inside Out Tab

   
Anthrax
INSIDE OUT

Tabbed out by Gamaliel Colon (inbredhatred@cs.com)
*Note*  I didn't figure all of it out, but I dicked around
and made it look pretty, plus figured out other parts. No solo yet,
but it's more fun just to listen and play what you think should be played.

Tuning:Drop-D, tuned 1/2 step down  

Guitar 1- 12 string acoustic
Guitar 2- Rythym Distortion
Guitar 3- Clean
Guitar 4- Lead Distortion

	Intro
  (Guitar 1)
E|--------------------------|-----------------------------------|
B|--------------------------|-------3---------------------------|
G|-------0---------0--------|-------2---------------------------|
D|-----2---------2----2-----|-----0-----------------------------|
A|---3---------3--------3---|---0-------------------------------|
D|-3---------3------------3-|-0---------------------------------|
 |                          |
 |(Guitar 2)                |
E|--------------------------|-----------------------------------|
B|--------------------------|-------3----3/5\3----3/5\3---------|
G|-------0---------0--------|-------2----2/4\2----2/4\2---------|
D|-----2---------2----2-----|-----------------------------------|
A|---3---------3--------3---|-0---------------------------------|
D|-3---------3------------3-|-0---------------------------------|
 |                          |
 |(Guitar 3)                | 
E|--------------------------|-----------------------------------|
B|--------------------------|-----------------7h8p7p5---5-------|
G|--------------------------|-------------------------7---5-7---|
D|--------------------------|---------------------------------7-|
A|--------------------------|-----------------------------------|
D|--------------------------|-----------------------------------|

  (Guitar 1)
E|--------------------------|---|
B|--------------------------|-3-|
G|-------0---------0--------|-2-|
D|-----2---------2----2-----|-0-|
A|---3---------3--------3---|-0-|
D|-3---------3------------3-|-0-|
 |                          |
 |(Guitar 2)                |
E|--------------------------|---|
B|--------------------------|-3-|
G|-------0---------0--------|-2-|
D|-----2---------2----2-----|-0-|
A|---3---------3--------3---|-0-|
D|-3---------3------------3-|-0-|


	Main riff
 (Guitar 2)  
E|-|------------------------------------------------------|-|
B|-|------------------------------------------------------|-|
G|.|------------------------------------------------------|.|
D|.|------------------------------------------------------|.| x4
A|-|--------------------------------------------------1-1-|-|
D|-|-2br-0-0-2-0-0-2br-0-0--2-0-3br-0-0--2-0-2br-0-0--1-1-|-|


	Rythym fill
  (Guitar 2)
E|-----------------------------------------|
B|-----------------------------------------|
G|-2---------------------------------------|
D|-0---------------------------------------|
A|-0---------------------------------------|
D|-0---------------------------------------|
 |                                         |
 |(Guitar 3)                               |
E|-----------------------------------------|
B|-----------------------7h8p7p5---5-------|
G|-------------------------------7---5-7---|
D|-----------------------------------------|
A|-----------------------------------------|
D|-----------------------------------------|


	Verse part 1
  (Guitar 3)              
E|--------------------------------------------------------------------|
B|--------------------------------------------------------------------|
G|-7-7-7-7-7-7-7-8b--7-7-7-7-7-7-7-8b--7-7-7-7-7-7-8b--7-7-7-7-7-7-7\-|
D|--------------------------------------------------------------------|
A|--------------------------------------------------------------------|
D|--------------------------------------------------------------------|


	Verse part 2
  (Guitar 1)
E|--------------------------|-----------------------------------------|
B|--------------------------|-------3---------------------------------|
G|-------0---------0--------|-------2---------------------------------|
D|-----2---------2----2-----|-----0-----------------------------------|
A|---3---------3--------3---|---0-------------------------------------|
D|-3---------3------------3-|-0---------------------------------------|
 |                          |
 |(Guitar 3)                |
E|--------------------------|-----------------------------------------|
B|--------------------------|-------3---------------------------------|
G|-------0---------0--------|-------2---------------------------------|
D|-----2---------2----2-----|-----0-----------------------------------|
A|---3---------3--------3---|---0-------------------------------------|
D|-3---------3------------3-|-0---------------------------------------|
 |                          |
 |(Guitar 2)                | 
E|--------------------------|-----------------------------------------|
B|--------------------------|-----------------------------------------|
G|--------------------------|-----------------------------------------|
D|--------------------------|-----------------------------------------|
A|--------------------------|-------------------3-4-5--3-4-5--3-4-5\--|
D|--------------------------|-----------------------------------------|


	Pre-chorus
Play Main Riff x4

[ Tab from: http://www.guitartabs.cc/tabs/a/anthrax/inside_out_tab.html ]
	Chorus part 1
  (Guitar 2)
E|------------------------------------------------------------------|
B|------------------------------------------------------------------|
G|-2-------------------------------------------------------7--------|
D|-0----------------3/8----------------3/8------------7----7--------|
A|-0----------------3/8----------------3/8------------7----5--------|
D|-0----------------3/8----------------3/8------------7-------------|
 |                                                                  |
 |(Guitar 4)                                                        |  
E|------------------------------------------------------------------|
B|------------------------------------------------------------------|
G|-7-7-7-7-7-7-7-7-7-7-7-7-7-7-7-7-7-7-7-7-7-7-11-11-11-11-11-11-11-|
D|-x-x-x-x-x-x-x-x-x-x-x-x-x-x-x-x-x-x-x-x-x-x--x--x--x--x--x--x--x-|
A|-5-5-5-5-5-5-5-5-5-5-5-5-5-5-5-5-5-5-5-5-5-5--9--9--9--9--9--9--9-|
D|------------------------------------------------------------------|

  (Guitar 2)
E|------------------------------------------------------------------|
B|------------------------------------------------------------------|
G|-2-------------------------------------------------------7--------|
D|-0----------------3/8----------------3/8------------7----7--------|
A|-0----------------3/8----------------3/8------------7----5--------|
D|-0----------------3/8----------------3/8------------7-------------|
 |                                                                  |
 |(Guitar 4)                                                        |  
E|------------------------------------------------------------------|
B|------------------------------------------------------------------|
G|-11-11-11-11-11-11-11-7-7-7-7-7-7-7-7-7-7-7-7-7-7-7-7-7-7-7-7-7-7-|
D|--x--x--x--x--x--x--x-x-x-x-x-x-x-x-x-x-x-x-x-x-x-x-x-x-x-x-x-x-x-|
A|--9--9--9--9--9--9--9-5-5-5-5-5-5-5-5-5-5-5-5-5-5-5-5-5-5-5-5-5-5-|
D|------------------------------------------------------------------|

  (Guitar 2)
E|----------------------------|
B|----------------------------|
G|----------------------------|
D|----------------------------|
A|-3-4-5--3-4-5--3-4-5--3-4-5-|
D|----------------------------|


	Chorus part 2
  (Guitar 2)
E|------------------------------------------------------------------|
B|------------------------------------------------------------------|
G|------------------------------------------------------------------|
D|------------------------------------------------------------------|
A|----------------------------------------------------------5-5-5-5-|
D|-0-0-0-0-0-0-0-0--3/8-8-8-8-8-8-8-8--3/8-8-8-8-8-8--7-7-7-0-0-0-0-|
 |                                                                  |
 |(Guitar 4)                                                        |  
E|------------------------------------------------------------------|
B|------------------------------------------------------------------|
G|-14-14-14-14-14-14-14-14-14-14-14-14-14-14-14-11-11-11-11-11-11-11|
D|--x--x--x--x--x--x--x--x--x--x--x--x--x--x--x--x--x--x--x--x--x--x|
A|-12-12-12-12-12-12-12-12-12-12-12-12-12-12-12--9--9--9--9--9--9--9|
D|------------------------------------------------------------------|

  (Guitar 2)
E|------------------------------------------------------------------|
B|------------------------------------------------------------------|
G|------------------------------------------------------------------|
D|------------------------------------------------------------------|
A|----------------------------------------------------------5-5-5-5-|
D|-0-0-0-0-0-0-0-0--3/8-8-8-8-8-8-8-8--3/8-8-8-8-8-8--7-7-7-0-0-0-0-| 
 |                                                                  |
 |(Guitar 4)                                                        |  
E|------------------------------------------------------------------|
B|------------------------------------------------------------------|
G|-11-11-11-11-11-11-11-14-14-14-14-14-14-14-14-14-14-14-14-14-14-14|
D|--x--x--x--x--x--x--x--x--x--x--x--x--x--x--x--x--x--x--x--x--x--x|
A|--9--9--9--9--9--9--9-12-12-12-12-12-12-12-12-12-12-12-12-12-12-12|
D|------------------------------------------------------------------|

  (Guitar 2)
E|----------------------------|
B|----------------------------|
G|----------------------------|
D|----------------------------|
A|-3-4-5--3-4-5--3-4-5--3-4-5-|
D|----------------------------|
            

	Solo section       
    (Guitar 2)             
E|-|-------------------------|-|-----------------|
B|-|-------------------------|-|-----------------|
G|.|-------------------------|.|-----------------|
D|.|-------------------------|.|-----------------|
A|-|-------------------------|-|-----------------|
D|-|-2br-0-0-2-0-2br-0-0-2-0-|-|-2br-0-0-0-12\---|

    (Guitar 2)
E|-|-----------------------|-|------------------|
B|-|-----------------------|-|------------------|
G|.|-----------------------|.|------------------|
D|.|-------------------3/8-|.|------------------|
A|-|-------------------3/8-|-|------------------|
D|-|-2br-0-2-0-0-2br-0-3/8-|-|-2br-0-2-0-0-/12\-|


	Outro
  (Guitar 2)
E|---------------------------------------------------------5----|-|
B|---------------------------------------------------------3----|-|
G|---------------------------------------------------------2----|-|
D|---------------------------------------------------------0----|-|
A|-3-4-5--3-4-5--3-4-5--3-4-5--3-4-5--3-4-5--3-4-5--3-4-5--0----|-|
D|---------------------------------------------------------0----|-|



	Song structure
intro
main riff
verse part 1
verse part 2
main riff
chorus part 1
main riff
verse part 1
verse part 2(gtr.2 is subbed by rythym fill on gtr. 3 only)
verse part 2
main riff
chorus part 1
chorus part 2
solo section
chorus part 1
chorus part 2
outro



	Tablature Notation
b- 1/2 step bend
br- 1/2 step bend and release
/- slide up to
\- slide down from
h- hammer on
p- pull off
x- muted dead note
|-|
|-|
|.|- measure is repeated, listen for number of times
|.|
|-|
|-|
Comments