Anthrax - Inside Out Chords & Tabs

 

Inside Out Chords & Tabs

Anthrax Chords & Tabs

Version: 1 Type: Bass Tab 0 ratings
1 star 2 stars 3 stars 4 stars 5 stars
comments

Inside Out Bass Tab

Standard Tuning

intro/prechorus
G||------------------------------------------||
D||o----------------------------------------o||
A||------------------------------------------||
E||o----------------------------------------o||
B||--5--2-2-2-0--5-2-2-2--5-2-2-2-0-5-2-2-2--||

Verse
G||------------------------------------------------------------||
D||o----------------------------------------------------------o||
A||--------------------------4---------------------------------||
E||o----------------------4----------------------------4------o||
B||--5----5----2-----0^5--------2---5----5---2-----0^5---5--2--||

G||-----------------------------------||-------------------||
D||o---------------------------------o||-------------------||
A||-----------7-----------7------4----||-2-3-4-2-3-4-2-3-4-||
E||o-0--7--0-----0--0--7-------4-----o||-------------------||
B||--------------------------2--------||-------------------||
[ Tab from: http://www.guitartabs.cc/tabs/a/anthrax/inside_out_btab.html ]
chorus
G||---------------------------------------------------------------||
D||o-------------------------------------------------------------o||
A||---------------------------------------------------------------||
E||o---------------5------------0--5~---------5------------------o||
B||---2~---------2-------------------------------2~-----------0~--||

2nd chorus            2x                   4x                 2x
G||-------------------||-------------------||-----------------||
D||o-----------------o||o-----------------o||o---------------o||  x2
A||-------------------||-------------------||-----------------||
E||o-----------------o||o-5-5-5-5-5-5-5-5-o||o---------------o||
B||-2-2-2-2-2-2-2-2-2-||-------------------||-2-2-2-2-2-2-2-2-||

solo            2x              4x               2x 
G||---------------||--------------||---------------||
D||*o------------o||o------------o||o------------o*||
A||---------------||--------------||---------------||
E||*o------------o||o-5--5-5-5-0-o||o------------o*||
B||---5--2-2-2-0--||--------------||--5--2-2-2-0---||
Comments