Anthrax - Indians Chords & Tabs

 

Indians Chords & Tabs

Anthrax Chords & Tabs

Version: 2 Type: Tab 0 ratings
1 star 2 stars 3 stars 4 stars 5 stars
comments

Indians Tab

   
Band:  Anthrax
Album: Among The Living
Song:  Indians

Copyright (c)  (Island) (1987)
Version 1.0 - (22/04/05)

Transcribed By: Steve
Email:          stephen.elvidge1@ntlworld.com


.  - palm mute           /  - slide up to
\  - slide down to       ~  - vibrato
h  - hammer on           b  - Bend
p  - pull off            Suffixes for bend
t  - tap                 f  - full bend    h - half bend
ph - pinched harmonic    q  - quarter bend t - tap bend
*  - see comment         ^  - Hold bend    r release bend
x  - Stuccatto           ~  - vibrato bend
,  - slight palm mute    () - ghost note, sustained note
"  - tremolo note        <> - Trill

Tunning E A D G B E
 

 Intro

  Guitar 1    ~~
E[---------------|
B[---------------|
G[----------10-9-|
D[-10-9--10------|
A[---------------|
E[---------------|
 [Guitar 2    ~~
E[---------------|
B[---------------|
G[----------5--4-|
D[-7--5--7-------|
A[---------------|
E[---------------| Rpt

  Guitar 1    ~~~
E[----------------|
B[----------------|
G[----------12-11-|
D[-12-11-12-------|
A[----------------|
E[----------------|
 [Guitar 2    ~~~
E[----------------|
B[----------------|
G[----------7--6--|
D[-9--7--9--------|
A[----------------|
E[----------------| Rpt


  Guitar 1
E[------------------|
B[------------------|
G[------------------|
D[-10-9-10-9--------|
A[-----------10-10--|
E[------------------|
 [Guitar 2
E[------------------|
B[------------------|
G[------------------|
D[-7--5-7--5--------|
A[-----------7--7---|
E[------------------|
 [Guitar 3
 [         [--PM-]
E[------------------|
B[------------------|
G[------------------|
D[------------------|
A[-7-\5/7-\5-2--2---|
E[-5-\3/5-\3p0--0---| Rpt 2 X

  Guitar 1
E[--------------------|
B[--------------------|
G[--------------------|
D[-12-11-12-11--------|
A[-------------12-12--|
E[--------------------|
 [ Guitar 2
E[--------------------|
B[--------------------|
G[--------------------|
D[-9--7--9--7---------|
A[-------------9--9---|
E[--------------------|
 [Guitar 3
 [         [--PM-]
E[-------------------|
B[-------------------|
G[-------------------|
D[-------------------|
A[-9-\7-/9-\7-4--4---|
E[-7-\5-/7-\5-2--2---| Rpt 2 X

 Rpt 1st part again 2 X

E--------------|
B--------------|
G--------------|
D----------109-|
A-(2)--7\6-8\7-|
E-(0)--5\4-----|

 Riff A
 [------PM-------]
E-------------------------|
B-------------------------|
G-------------------------|
D---------------------109-|
A-----------------7\6-8\7-|
E-0-0-0-0-0-0-0-0-5\4-----|

 Riff B
 [------PM-------]
E-------------------------|
B-------------------------|
G-------------------------|
D-9-9-9-9-9-9-9-9-----109-|
A-7-7-7-7-7-7-7-7-7\6-8\7-|
E-----------------5\4-----|

     Rpt above 2 riffs

E---------------------|
B---------------------|
G---------------------|
D-9--9--9--9--9--9--9-|
A-7--7--7--7--7--7--7-|
E---------------------|

 [-------------HEAVY PM----------]
E--------------------------------------|
B--------------------------------------|
G--------------------------------------|
D--------------------------------------|
A---5\4/5---5\4/5---6\5/6---5\4/5/7-\--|
E-0-3\2/3-0-3\2/3-0-4\3/4-0-3\2/3/5-\--|

 Verse Riff

 Riff C

   [-PM] [-PM] [-PM-]        [-PM] [-PM] [-PM-]
E------------------------------------------------------|
B------------------------------------------------------|
G------------------------------------------------------|
D------------------------------------------------------|
A-5-----5-----5-------4/5\4-5-----5-----5-------4-2-4/-|
E-3-0-0-3-0-0-3-0-0-0-2/3\2-3-0-0-3-0-0-3-0-0-0-2-0-2/-| Rpt 3 X

 [------PM-------]
E-----------------|
B-----------------|
G-----------------|
D-----------------|
A---4---4---4---4-|
E-0-2-0-2-0-2-0-2-|

 Rpt Riff C 3 X
[ Tab from: http://www.guitartabs.cc/tabs/a/anthrax/indians_tab_ver_2.html ]
   [-PM] [-PM] [-PM-]        [-PM] [-PM] [-PM-]
E-------------------------------------------------------|
B-------------------------------------------------------|
G-------------------------------------------------------|
D---------------------------------------------------109-|
A-5-----5-----5-------4/5\4-5-----5-----5-------7\6-8\7-|
E-3-0-0-3-0-0-3-0-0-0-2/3\2-3-0-0-3-0-0-3-0-0-0-5\4-----|

 Rpt Riffs A and B 2 X

 Riff D
 [PM]  PM  PM           [PM]  PM   PM 
E------------------------------------------------|
B------------------------------------------------|
G------------------------------------------------|
D-----9---9---9\7-----10-----9---9---9\7---12\11-|
A-----7---7---7\5-9\8-8------7---7---7\5-9-10\9--|
E-0-0---0---0-----7\6----0-0---0---0-----7-------| Rpt

 [------PM-------]
E-----------------|
B-----------------|
G-----------------|
D-----------------|
A---4---4---4---4-|
E-0-2-0-2-0-2-0-2-|

 Rpt Verse

 Chorus
                    [-------------PM-------------]
E--------------------------------------------------|
B--------------------------------------------------|
G--------------------------------------------------|
D-9----9--9\7--------------------------------------|
A-7----7--7\5-9-9\8-8-8-8-8-8-8-8-8-8\7-7\5-5\4-4--|
E-------------7-7\6-6-6-6-6-6-6-6-6-6\5-5\3-3\2-2--|

                    [-----PM-----]
E--------------------------------------------------|
B--------------------------------------------------|
G--------------------------------------------------|
D-9----9--9\7--------------------------------------|
A-7----7--7\5-9-9\8---------------8----------------|
E-------------7-7\6-6-6-6-6-6-6-6-6----------------|

                    [-------------PM-------------]
E--------------------------------------------------|
B--------------------------------------------------|
G--------------------------------------------------|
D-9----9--9\7--------------------------------------|
A-7----7--7\5-9-9\8-8-8-8-8-8-8-8-8-8\7-7\5-5\4-4--|
E-------------7-7\6-6-6-6-6-6-6-6-6-6\5-5\3-3\2-2--| Rpt

 Rpt Verse and Chorus


    [-PM-] [-----PM----]
E----------------------------------|
B----------------------------------|
G----------------------------------|
D-----------------------5\4/8\7----|
A-5-2-----2-------------3\2/6\5-8--|
E-3-0-0-0-0-0-000-0-2-3---------6--| Rpt 5 x

    [-PM-] [---------PM--------]
E----------------------------------|
B----------------------------------|
G----------------------------------|
D-----------------------5\4/8\7----|
A-5-2-----2-------------3\2/6\5-8--|
E-3-0-0-0-0-0-000-0-2-3---------6--| Rpt 4 X

 Backing for solo

E------------------------------|
B------------------------------|
G------------------------------|
D------------------------------|
A-5---------5-5---5\4\3---3/4--|
E-3-0-0-0-0-4-3-0-3\2\1-0-1/2--| Rpt 4 X

E------------------------------|
B------------------------------|
G------------------------------|
D------------------------------|
A-5---------5-5---5\4\3---3/4--|
E-3-0-0-0-0-3-3-0-3\2\1-0-1/2--| Rpt 4 X

 Lead line at end of solo
                   ~~~~~~      h                    ~~~~~~
E---------------------------------------------------------|
B-10fbr--10--10fbrp7------\-12-15-15fbr--15--15fbrp12-----|
G---------------------------------------------------------|
D---------------------------------------------------------|
A---------------------------------------------------------|
E---------------------------------------------------------|
                                        Pinch harmonic
                       ~~~~~~            ~~~~~~~~~~
E-17-17fbr--17--17fbrp14------------------------------|
B----------------------------5---3---5----------------|
G----------------------------7b--5b--7br-4------------|
D-----------------------------------------------------|
A-----------------------------------------------------|
E-----------------------------------------------------|

 Rpt Verse and Chorus.

 Ending

E-----------------------------------------------------|
B-----------------------------------------------------|
G-----------------------------------------------------|
D-9---7--9\7-------9---7--9\7-------9---7--9\7--------|
A-7---5--7\5-9--9\-7---5--7\5-9--9\-7---5--7\5-9--9\--|
E-7----------7--7\-7----------7--7\-7----------7--7\--|


E-------------------|
B-------------------|
G-------------------|
D-9---7--9\7----9\--|
A-7---5--7\5-9--7\--|
E-7----------7--7\--|


END
Comments