Anthrax - Got The Time Chords & Tabs

 

Got The Time Chords & Tabs

Anthrax Chords & Tabs

Version: 2 Type: Tab 0 ratings
1 star 2 stars 3 stars 4 stars 5 stars
comments

Got The Time Tab

Band: Anthrax
Song: Got The Time
Tunig: Standard

Riff 1                x3                      Last time
e|---------------------|----------------------|----------|
B|---------------------|----------------------|----------|
G|---------------------|----------------------|----------|
D|-------------8-8-----|----------------------|----------|
A|--8-8--4444--6-6-6-6-|--6---6---6---6---6-6-|--8----8\-|
E|--6-6------------4-4-|--4-4-4-4-4-4-4-4-4-4-|--6----6\-|
         ****               *   *   *   * 

Riff 2                               1st   2nd ending
e|-----------------------------------|-----|-------------------|
B|-----------------------------------|-----|-------------------|
G|-----------------------------------|-----|-------------------|
D|-----------------------------------|-----|--------------6--8-|
A|-8----------------8----------------|--8\-|--8--6--4--3--4--6-|
E|-6-66666666666666-6-66666666666666-|--6\-|--6--4--2--1-------|
     **************   **************          *  *    

Play Riff 1   "Time, got the time..."
Play Riff 2   
Play Riff 1   "Time, got the time..."


Solo Rhythm           x3                      Last time
e|---------------------|----------------------|----------|
B|---------------------|----------------------|----------|
G|---------------------|----------------------|----------|
D|---------------------|----------------------|----------|
A|------4444-6666------|--6---6---6---6---6-6-|--8----8\-|
E|-6666-----------4444-|--4-4-4-4-4-4-4-4-4-4-|--6----6\-|
   **** **** **** ****      *   *   *   * 

[ Tab from: http://www.guitartabs.cc/tabs/a/anthrax/got_the_time_tab_ver_2.html ]
Solo                                                      x2
e|-6-6-6-6--9-9-9-9--11-11-11-11--4-4-4-4--4--4--4--4--4-4-|
B|-6-6-6-6--9-9-9-9--11-11-11-11--4-4-4-4--4--4--4--4--4-4-|
G|---------------------------------------------------------|
D|---------------------------------------------------------|
A|---------------------------------------------------------|
E|---------------------------------------------------------|

End Solo


During bass solo, play this
e|-----------------------|
B|-----------------------|
G|-----------------------|
D|-----------------------|
A|-8-8-8-8-8-8-8-8-------|
E|-6-6-6-6-6-6-6-6-.....-|
   *   *   *   *
When drums start, play this
e|-----------------------|
B|-----------------------|
G|-----------------------|
D|-----------------------|
A|--8-8--8-8--8-8--------|
E|--6-6--6-6--6-6-......-|

Towards end, play this
e|-----------------------|
B|-----------------------|
G|-----------------------|
D|-----------------------|
A|--8-8--8-8--8-8--------|
E|--6-6--6-6--6-6-......-|
    * *  * *  * * 

Then the lead in to the chorus
e|------------------|
B|------------------|
G|------------------|
D|-------------6--8-|
A|-8--6--4--3--4--6-|
E|-6--4--2--1-------|
   *  *    

Ending                x3
e|---------------------|----------------------|
B|---------------------|----------------------|
G|---------------------|----------------------|
D|-------------8-8-----|----------------------|
A|--8-8--4444--6-6-6-6-|--6---6---6---6---6-6-|
E|--6-6------------4-4-|--4-4-4-4-4-4-4-4-4-4-|
         ****               *   *   *   * 
   "Time, got the time..."

Last time
e|---------------|
B|---------------|
G|---------------| end
D|-------------8-|
A|--8-8--4444--6-|
E|--6-6----------|
         ****     
   "...head."
Comments