Anthrax - Bring The Noise Chords & Tabs

 

Bring The Noise Chords & Tabs

Anthrax Chords & Tabs

Version: 4 Type: Tab 0 ratings
1 star 2 stars 3 stars 4 stars 5 stars
comments

Bring The Noise Tab

   
#----------------------------------PLEASE NOTE---------------------------------#
#This file is the author's own work and represents their interpretation of the #
#song. You may only use this file for private study, scholarship, or research. #
#------------------------------------------------------------------------------##

                                 BRING THE NOISE
                             As recorded by Anthrax
                     (From the 1991 EP ATTACK OF KILLER B'S)

Words by C. Ridenhour, E. Sadler and J. Boxley

Music by Anthrax


Gtr I (Eb Ab Db Gb Bb Eb) - 'Scott Ian'
Gtr II (Eb Ab Db Gb Bb Eb) - 'Dan Spitz'

 Intro
  Q=118
  N.C.
 4/4
  Gtr I
  PM-----------------------------------------------
  |----6----| |----6----| |----6----| |----6----|
  S S S S S S S S S S S S S S S S S S S S S S S S
|-------------------------------------------------|
|-------------------------------------------------|
|-------------------------------------------------|
|-------------------------------------------------|
|-4-5-7-------------------4-5-7-------------------|
|-------0-0-0-0-0-0-0-0-0-------0-0-0-0-0-0-0-0-0-|


 -----------------------------------------------|
  |----6----| |----6----| |----6----| |----6----|
  S S S S S S S S S S S S S S S S S S S S S S S S
|-------------------------------------------------|
|-------------------------------------------------|
|-------------------------------------------------|
|-------------------------------------------------|
|-4-5-7-------------------4-5-7-------------------|
|-------0-0-0-0-0-0-0-0-0-------0-0-0-0-0-0-0-0-0-|


  PM-----------------------------------------------
  |----6----| |----6----| |----6----| |----6----|
  S S S S S S S S S S S S S S S S S S S S S S S S
|-------------------------------------------------|
|-------------------------------------------------|
|-------------------------------------------------|
|-------------------------------------------------|
|-4-5-7-------------------4-5-7-------------------|
|-------0-0-0-0-0-0-0-0-0-------0-0-0-0-0-0-0-0-0-|


 -----------------------------------------------|
  |----6----| |----6----| |----6----| |----6----|
  S S S S S S S S S S S S S S S S S S S S S S S S
|--------------------------------------------------||
|--------------------------------------------------||
|--------------------------------------------------||
|--------------------------------------------------||
|-4-5-7--------------------------------------------||
|-------0-0-0-0-0-0-0-0-0-0-0-0-0-0-0-0-0-0-0-0-0--||


   1st & 3rd Verses
    $
    F5 E5BbE5            F5 E5BbE5
    Gtr I
     PM----|              PM----|
     E E E E  E E E  E    E E E E  E E E  E
||---------------------|--------------------|
||o--------------------|--------------------|
||---------------------|--------------------|
||-------3-------------|------3-------------|
||o--3-2-1-2----2----2-|--3-2-1-2----2----2-|
||---1-0---0----0----0-|--1-0---0----0----0-|
|
|   Gtr II
|    H        Q.     E    H        Q.     E
||--15s======18s====21-|-15s======18s====21-|
||o--------------------|--------------------|
||---------------------|--------------------|
||---------------------|--------------------|
||o--------------------|--------------------|
||---------------------|--------------------|


  F5 E5BbE5            F5E5BbE5
   PM----|             PM----|   PM--------|
   E E E E  E E E  E   E E E E E S S S S S S  4x
|--------------------|------------------------||
|--------------------|-----------------------o||
|--------------------|------------------------||
|------3-------------|-----3------------------||
|--3-2-1-2----2----2-|-3-2-1-2---------------o||
|--1-0---0----0----0-|-1-0---0---x-x-x-x-x-x--||
|
|  H        Q.     E   W                      4x
|-15s======18s====21-|------------------------||
|--------------------|-----------------------o||
|--------------------|------------------------||
|--------------------|------------------------||
|--------------------|-----------------------o||
|--------------------|------------------------||


 Chorus
  G5  BbG5BbG5N.C.      G5  BbG5BbG5N.C.      G5  BbG5BbG5N.C.
  PM|         PM----------|         PM----------|         PM----|
  E E E E E E S S S S   E E E E E E S S S S   E E E E E E S S S S
|---------------------|---------------------|----------------------|
|---------------------|---------------------|----------------------|
|---------------------|---------------------|----------------------|
|---------------------|---------------------|----------------------|
|-5-5-8s5-8s5---------|-5-5-8s5-8s5---------|-5-5-8s5-8s5----------|
|-3-3-6s3-6s3-1-1-2-3-|-3-3-6s3-6s3-1-1-2-3-|-3-3-6s3-6s3-1-1-2-3--|


                                                         To Coda
  G5  BbG5BbG5N.C.      G5  BbG5BbG5N.C.      G5  BbG5BbG5N.C.
  PM|         PM----------|         PM----------|         PM----|
  E E E E E E S S S S   E E E E E E S S S S   E E E E E E S S S S
|---------------------|---------------------|----------------------||
|---------------------|---------------------|----------------------||
|---------------------|---------------------|----------------------||
|---------------------|---------------------|----------------------||
|-5-5-8s5-8s5---------|-5-5-8s5-8s5---------|-5-5-8s5-8s5----------||
|-3-3-6s3-6s3-1-1-2-3-|-3-3-6s3-6s3-1-1-2-3-|-3-3-6s3-6s3-1-1-2-3--||


 2nd Verse
                 F5E5BbE5          F5E5BbE5
                 PM----|           PM----|
  Wx4            E E E E E E E E   E E E E E E E E
|------------||------------------|-----------------|
|------------||o-----------------|-----------------|
|------------||------------------|-----------------|
|------------||------3-----------|-----3-----------|
|------------||o-3-2-1-2---2---2-|-3-2-1-2---2---2-|
|------------||--1-0---0---0---0-|-1-0---0---0---0-|

[ Tab from: http://www.guitartabs.cc/tabs/a/anthrax/bring_the_noise_tab_ver_4.html ]
  F5E5BbE5          F5E5BbE5
  PM----|           PM----|
  E E E E E E E E   E E E E E E E E
|-----------------|------------------||
|-----------------|-----------------o||
|-----------------|------------------||
|-----3-----------|-----3------------||
|-3-2-1-2---2---2-|-3-2-1-2---2---2-o||
|-1-0---0---0---0-|-1-0---0---0---0--||


 Chorus
  G5  BbG5BbG5N.C.      G5  BbG5BbG5N.C.      G5  BbG5BbG5N.C.
  PM|         PM----------|         PM----------|         PM----|
  E E E E E E S S S S   E E E E E E S S S S   E E E E E E S S S S
|---------------------|---------------------|----------------------|
|---------------------|---------------------|----------------------|
|---------------------|---------------------|----------------------|
|---------------------|---------------------|----------------------|
|-5-5-8s5-8s5---------|-5-5-8s5-8s5---------|-5-5-8s5-8s5----------|
|-3-3-6s3-6s3-1-1-2-3-|-3-3-6s3-6s3-1-1-2-3-|-3-3-6s3-6s3-1-1-2-3--|


                                                    D.S. al Coda
  G5  BbG5BbG5N.C.      G5  BbG5BbG5N.C.      G5  BbG5BbG5N.C.
  PM|         PM----------|         PM----------|         PM----|
  E E E E E E S S S S   E E E E E E S S S S   E E E E E E S S S S
|---------------------|---------------------|----------------------||
|---------------------|---------------------|----------------------||
|---------------------|---------------------|----------------------||
|---------------------|---------------------|----------------------||
|-5-5-8s5-8s5---------|-5-5-8s5-8s5---------|-5-5-8s5-8s5----------||
|-3-3-6s3-6s3-1-1-2-3-|-3-3-6s3-6s3-1-1-2-3-|-3-3-6s3-6s3-1-1-2-3--||


    &
    E5          G5A5N.C.          E5          G5A5N.C.
                    PM--------|                   PM--------|
    S S S S +E  E E S S S S S S   S S S S +E  E E S S S S S S
||------------------------------|------------------------------|
||o-----------------------------|------------------------------|
||--9-9-9-9-(9)-----------------|-9-9-9-9-(9)------------------|
||--9-9-9-9-(9)-5-7-------------|-9-9-9-9-(9)-5-7--------------|
||o-7-7-7-7-(7)-5-7-------------|-7-7-7-7-(7)-5-7--------------|
||--------------3-5-0-0-0-0-0-0-|-------------3-5-0-0-0-0-0-0--|


  E5          G5A5N.C.          E5          G5A5N.C.
                  PM--------|                   PM--------|
  S S S S +E  E E S S S S S S   S S S S +E  E E S S S S S S
|-----------------------------|------------------------------||
|-----------------------------|-----------------------------o||
|-9-9-9-9-(9)-----------------|-9-9-9-9-(9)------------------||
|-9-9-9-9-(9)-5-7-------------|-9-9-9-9-(9)-5-7--------------||
|-7-7-7-7-(7)-5-7-------------|-7-7-7-7-(7)-5-7-------------o||
|-------------3-5-0-0-0-0-0-0-|-------------3-5-0-0-0-0-0-0--||


    F5E5BbE5          F5E5BbE5
    PM----|           PM----|
    E E E E E E E E   E E E E E E E E
||------------------|-----------------|
||o-----------------|-----------------|
||------------------|-----------------|
||------3-----------|-----3-----------|
||o-3-2-1-2---2---2-|-3-2-1-2---2---2-|
||--1-0---0---0---0-|-1-0---0---0---0-|


  F5E5BbE5          F5E5BbE5
  PM----|           PM----|
  E E E E E E E E   E E E E E E E E  3x
|-----------------|------------------||
|-----------------|-----------------o||
|-----------------|------------------||
|-----3-----------|-----3------------||
|-3-2-1-2---2---2-|-3-2-1-2---2---2-o||
|-1-0---0---0---0-|-1-0---0---0---0--||


 Outro
  N.C.
  TP TP TP TP   TP TP TP TP   TP  TP  TP TP TP
                                      |--3--|
  Q  Q  Q  Q    Q  Q  Q  Q    Q   Q   Q  Q  Q
|-------------|-------------|------------------|
|-------------|-------------|------------------|
|-------------|-------------|------------------|
|-------------|-------------|------------------|
|-1--2--3--4--|-5--6--7--8--|-9--10--11-12-13\-|
|-------------|-------------|------------------|


  F5                E5
                   2/4      4/4
  PM------------|
  E E E E E E E E   E E Q    Wx8
|-----------------|--------|--------*|
|-----------------|--------|--------*|
|-----------------|--------|--------*|
|-----------------|-2------|--------*|
|-3-3-3-3-3-3-3-3-|-2------|--------*|
|-1-1-1-1-1-1-1-1-|-0------|--------*|


Duration Legend
---------------
W - whole; H - half; Q - quarter; E - 8th; S - 16th; T - 32nd; X - 64th; a - acciaccatura
+ - note tied to previous; . - note dotted; .. - note double dotted
Uncapitalized letters represent notes that are staccato (1/2 duration)
Irregular groupings are notated above the duration line
Duration letters will always appear directly above the note/fret number it represents the
duration for.  Duration letters with no fret number below them represent rests.  Multi-
bar rests are notated in the form Wxn, where n is the number of bars to rest for.  Low
melody durations appear below the staff

Tablature Legend
----------------
 h   - hammer-on
 p   - pull-off
 b   - bend
 pb  - pre-bend
 r   - bend release (if no number after the r, then release immediately)
 /\  - slide into or out of (from/to "nowhere")
 s   - legato slide
 S   - shift slide
  - natural harmonic
[n]  - artificial harmonic
n(n) - tapped harmonic
 ~   - vibrato
 tr  - trill
 T   - tap
 TP  - trem. picking
 PM  - palm muting
\n/  - tremolo bar dip; n = amount to dip
 \n  - tremolo bar down
 n/  - tremolo bar up
/n\  - tremolo bar inverted dip
 =   - hold bend; also acts as connecting device for hammers/pulls
 <>  - volume swell (louder/softer)
 x   - on rhythm slash represents muted slash
 o   - on rhythm slash represents single note slash

Misc Legend
-----------
 |  - bar
||  - double bar
||o - repeat start
o|| - repeat end
*|  - double bar (ending)
 :  - bar (freetime)
 $  - Segno
 &  - Coda
Tempo markers -  = BPM(8/16=s8/s16), where s8 = swing 8ths, s16 = swing 16ths
Comments