Anthrax - Bring The Noise Chords & Tabs

 

Bring The Noise Chords & Tabs

Anthrax Chords & Tabs

Version: 3 Type: Tab 0 ratings
1 star 2 stars 3 stars 4 stars 5 stars
comments

Bring The Noise Tab

   
Anthrax - Bring The Noise
Album - Attack Of The Killer B's
Tabbed By - Garry Foster (gazfoster@hotmail.com)

| /  slide up
| \  slide down
| h  hammer-on
| p  pull-off
| ~  vibrato
| +  harmonic
| x  Mute note
|PM  Palm Mute


Intro - Distortion

E||--------------------------------------------------------||
B||--------------------------------------------------------||
G||--------------------------------------------------------||
D||--------------------------------------------------------|| X3 then:
A||--------------------------------------------------------||
E||--11-12-13-0-0-0-0-0-0-0-0-0-11-12-13-0-0-0-0-0-0-0-0-0-||

E||-----------------------------------------------------||
B||-----------------------------------------------------||
G||-----------------------------------------------------||
D||-----------------------------------------------------||
A||-----------------------------------------------------||
E||--11-12-13-0-0-0-0-0-0-0-0-0-0-0-0-0-0-0-0-0-0-0-0-0-||


Verse - Distortion

E||-------------------------|-------------------------|
B||-------------------------|-------------------------|
G||-------------------------|-------------------------|
D||--------3----------------|--------3----------------|
A||--3--2--1--2----2----2-2-|--3--2--1--2----2----2-2-|
E||--1--0-----0----0----0-0-|--1--0-----0----0----0-0-|
P.M. .  .  .  .         . .    .  .  .  .         . .   


-------------------------|------------------------------||
-------------------------|------------------------------||
-------------------------|------------------------------||
--------3----------------|--------3---------------------|| Verse X4
--3--2--1--2----2----2-2-|--3--2--1--2------------------||
--1--0-----0----0----0-0-|--1--0-----0--0-0-0-0-0-0-0-0-||


Chorus - Ditortion

E||----------------------------||
B||----------------------------||
G||----------------------------||
D||--5--5--8\-5--8\-5----------|| X7 Then:
A||--5--5--8\-5--8\-5--3-3-4-4-||
E||--3--3--6\-3--6\-3--1-1-2-2-||
P.M. .  .              . . . .

E||----------------------------||
B||----------------------------||
G||----------------------------||
D||--5--5--8\-5--8\-5----------|| X7
A||--5--5--8\-5--8\-5----------||
E||--3--3--6\-3--6\-3--0-0-0-0-||
P.M. .  .              . . . . 


Verse 2 - Same as verse i except one less note:
[ Tab from: http://www.guitartabs.cc/tabs/a/anthrax/bring_the_noise_tab_ver_3.html ]
E||------------------------|------------------------|------------------------|
B||------------------------|------------------------|------------------------|
G||------------------------|------------------------|------------------------|
D||--------3---------------|--------3---------------|--------3---------------|
A||--3--2--1--2----2----2--|--3--2--1--2----2----2--|--3--2--1--2----2----2--|
E||--1--0-----0----0----0--|--1--0-----0----0----0--|--1--0-----0----0----0--|
P.M. .  .  .  .               .  .  .  .               .  .  .  .    . 


------------------------------||
------------------------------||
------------------------------||
--------3---------------------|| Verse X4
--3--2--1--2------------------||
--1--0-----0--0-0-0-0-0-0-0-0-||


Bridge - Distortion

E||------------------------------||
B||------------------------------||
G||--9-9-9-9---------------------||
D||--9-9-9-9---------------------|| X8
A||--7-7-7-7---------------------||
E||------------3--5--0-0-0-0-0-0-||
P.M.                 . . . . . .


Outro - Distortion

E||--------------------------------------------------|
B||--------------------------------------------------|
G||--------------------------------------------------|
D||--------------------------------------------------|
A||--------------------------------------------------|
E||--6-6-6-6-6-6-7-7-7-7-7-7-8-8-8-8-8-8-9-9-9-9-9-9-|
P.M. . . . . . . . . . . . . . . . . . . . . . . . . 


--------------------------------------------------------------------------|
--------------------------------------------------------------------------|
--------------------------------------------------------------------------|
--------------------------------------------------------------------------|
--------------------------------------------------------------------------|
--10-10-10-10-10-10-11-11-11-11-11-11-12-12-12-12-12-12-13-13-13-13-13-13-|
P.M. .  .  .  .  .  .  .  .  .  .  .  .  .  .  .  .  .  .  .  .  .  .  .  


--------------------------------------------------------------------------|
--------------------------------------------------------------------------|
--------------------------------------------------------------------------|
--------------------------------------------------------------------------|
--------------------------------------------------------------------------|
--14-14-14-14-14-14-15-15-15-15-15-15-16-16-16-16-16-16-17-17-17-17-17-17-|
P.M. .  .  .  .  .  .  .  .  .  .  .  .  .  .  .  .  .  .  .  .  .  .  .  


---------------------------|-------------------||
---------------------------|-------------------||
---------------------------|-------------------||
---------------------------|--2----------------||
------2--2--2--2--2--2--2--|--2----------------||
--12\-0--0--0--0--0--0--0--|--0----------------||
P.M.  .  .  .  .  .  .  .


Order - 

Intro
Verse 1
Chorus
Verse 2
Chorus
Verse 3 (verse 1 with different lyrics)
Chorus
Bridge
Verse 4 (verse 1 with different lyrics)
Outro


gazfoster@hotmail.com
Comments