Anthrax - Anywhere But Here Chords & Tabs

 

Anywhere But Here Chords & Tabs

Anthrax Chords & Tabs

Version: 1 Type: Tab 0 ratings
1 star 2 stars 3 stars 4 stars 5 stars
comments

Anywhere But Here Tab

   
Tuning: Drop Db tuning


Intro (12 string acoustic)
eb|-------------------------0---|
Bb|-3----3--------3----3------3-|
Gb|-3----2--------3----2--------|
Db|-3----3--------3----3--------|
Ab|-1----0--------1----0--------|
Db|-----------------------------|

eb|-----------------------------|
Bb|-3--3-----3--3-----3--3----3-|
Gb|-3--3-----2--2-----0--0----2-|
Db|-3--3-----3--3-------------0-|
Ab|-1--1--0--0--0--0----------0-|
Db|-----------------------------|
                                  x3
eb|--------------------------------|
Bb|--------------------------------|
Gb|-3--3-----2-----3--3-----2------|
Db|-3--3-----3-----3--3-----3------|
Ab|-1--1--0--0-----1--1--0--0----5-|
Db|------------------------------0-|

eb|----------------------------|
Bb|----------------------------|
Gb|-3--3-----2-----3--3-----2--|
Db|-3--3-----3-----3--3-----3--|
Ab|-1--1--0--0-----1--1--0--0--|
Db|----------------------------|

Riff 1 
eb|-------------------------------------------------|
Bb|-------------------------------------------------|
Gb|-14-14-14-12-12-12-15-15-15-13-13-13-14-14-12-12-| --|
Ab|--0--0--0--0--0--0--0--0--0--0--0--0--0--0--0--0-|   |
Db|-------------------------------------------------|   |
                                                        |--> Play 2x
eb|-------------------------------------------------|   |
Bb|-------------------------------------------------|   |
Gb|-14-14-14-12-12-12-15-15-15-13-13-13-14-14-12-15-|   |
Db|--0--0--0--0--0--0--0--0--0--0--0--0--0--0--0--0-| --|
Ab|-------------------------------------------------|
Db|-------------------------------------------------|

eb|-------------------------------------------------|
Bb|-------------------------------------------------|
Gb|-14-14-14-12-12-12-15-15-15-13-13-13-14-14-12-12-|
Db|--0--0--0--0--0--0--0--0--0--0--0--0--0--0--0--0-|
Ab|-------------------------------------------------|
Db|-------------------------------------------------|

eb|--------------------------------------------------------|
Bb|--------------------------------------------------------|
Gb|-14-14-14-14-14-14-14-14-14-14^-14^-14^-14^-14^-14^-14^-|
Db|--0--0--0--0--0--0--0--0--0--0---0---0---0---0---0---0--|
Ab|--------------------------------------------------------|
Db|--------------------------------------------------------|

Lead into next section:
eb|---------------------------|
Bb|---------------------------|
Gb|---------------------------|
Db|---------------------------|
Ab|-0--0--0--0--0----0--0--0--|
Db|-0--0--0--0--0----0--0--0--|

Riff 2                                    x3
eb|----------------------------------------|
Bb|----------------------------------------|
Gb|----------------------------------------|
Db|----------------------------------------|
Ab|-------------------------------------10-|
Db|-12-15-0-12--12-12-15-0-12--12-12-15-10-|
          *              *

eb|-------------------------------------|
Bb|-------------------------------------|
Gb|-------------------------------------|
Db|-------------------------------------|
Ab|------------------------0-3-0-8-9-10-|
Db|-12-15-0-12--12-12-15\--0-3-0-8-9-10-|
          *

Riff 2a                           x4
eb|--------------------------------|
Bb|--------------------------------|
Gb|--------------------------------|
Db|-7-10---7--7-7-10---7--7-7-10-5-|
Ab|-5--8---5--5-5--8---5--5-5--8-3-|
Db|------0-----------0-------------|
         *           *

Riff 3
Guitar 1
eb|---------------------------|
Bb|---------------------------|
Gb|---------------------------|
Db|---------------------------|
Ab|-8--8--7--------8--8--7--0-|
Db|-8--8--7--------8--8--7--0-|
  
eb|-----------------------------------|
Bb|-----------------------------------|
Gb|-----------------------------------|
Db|-----------------------------------|
Ab|-8--8--7--------8--8--7--0--0------|
Db|-8--8--7--------8--8--7--0--0-//\\-|

Guitar 2
eb|------------------------------|
Bb|------------------------------|
Gb|------------------------------|
Db|-10tm-------10tm--------(10)\-|
Ab|------------------------------|
Db|------------------------------|

Riff 4                             x3
eb|---------------------------------|
Bb|---------------------------------|
Gb|---------------------------------|
Db|---------------------------------|
Ab|-0-0-0-3-3-3-8-8-8-3-3-3-7-7-6-5-|
Db|-0-0-0-3-3-3-8-8-8-3-3-3-7-7-6-5-|

eb|---------------------------------|
Bb|---------------------------------|
Gb|---------------------------------|
Db|---------------------------------|
Ab|-8-8-8-8-8-8-8-8-8-8-8-8-8-8-8-8-|
Db|-8-8-8-8-8-8-8-8-8-8-8-8-8-8-8-8-|

Riff 1a
eb|-------------------------------------------------|
Bb|-------------------------------------------------|
Gb|-14-14-14-12-12-12-15-15-15-13-13-13-14-14-12-12-|
Db|--0--0--0--0--0--0--0--0--0--0--0--0--0--0--0--0-|
Ab|-------------------------------------------------|
Db|-------------------------------------------------|

eb|--------------------------------------------------------|
Bb|--------------------------------------------------------|
Gb|-14-14-14-14-14-14-14-14-14-14^-14^-14^-14^-14^-14^-14^-|
Db|--0--0--0--0--0--0--0--0--0--0---0---0---0---0---0---0--|
Ab|--------------------------------------------------------|
Db|--------------------------------------------------------|



Play Riff 2    "And you pray..."
Play Riff 2a   "Abandon all you..."
Play Riff 3    "With exhausation..."
Play Riff 4    "Come on..."

[ Tab from: http://www.guitartabs.cc/tabs/a/anthrax/anywhere_but_here_tab.html ]
Lead into next section:
eb|--------------------------------|
Bb|--------------------------------|
Gb|--------------------------------|
Db|--------------------------------|
Ab|-0--0--0--0--0----0--0--0--0--0-|
Db|-0--0--0--0--0----0--0--0--0--0-|

eb|-------------------------------------|
Bb|-------------------------------------|
Gb|-------------------------------------|
Db|-------------------------------------|
Ab|-0--0--0--0--0----0--0--0--0--0------|
Db|-0--0--0--0--0----0--0--0--0--0--15\-|
                                          x2
eb|----------------------------------------|
Bb|----------------------------------------|
Gb|----------------------------------------|
Db|----------------------------------------|
Ab|-0--0--0--0--0-------0--0--0--0--0------|
Db|-0--0--0--0--0--15\--0--0--0--0--0--15\-|


Riff 5
Guitar 1
eb|------------------------------|
Bb|------------------------------|
Gb|------------------------------|
Db|------------------------------|
Ab|-0--------0--------0--------0-|
Db|-0--------0--------0--------0-|
    "A logical reason..."

Guitar 2
eb|-------------------------------------|
Bb|-------------------------------------|
Gb|-------------------------------------|
Db|-------------------------------------|
Ab|-5-8p5\-3-5--5-5-8p5-3-5--5-5-8p5\-3-|
Db|-------------------------------------|

Riff 6
Guitar 1                        x2
eb|------------------------------|
Bb|------------------------------|
Gb|------------------------------|
Db|------------------------------|
Ab|-8--------7--------8--------0-|
Db|-8--------7--------8--------0-|
   "It's hard to be defiant..."
eb|---------------------------------|
Bb|---------------------------------|
Gb|---------------------------------|
Db|---------------------------------|
Ab|-0-0-0-0-0-0-0-0-0-0-0-0-0-0-0-0-|
Db|-0-0-0-0-0-0-0-0-0-0-0-0-0-0-0-0-|
    * * * * * * * * * * * * * * * *

Guitar 2
eb|--------------------------------------|
Bb|--------------------------------------|
Gb|--------------------------------------|
Db|--------------------------------------|
Ab|-5-8p5\-3-5--5-5-8p5\-3-5--5-5-8p5\-3-|
Db|--------------------------------------|

Final time
eb|--------------------------|
Bb|--------------------------|
Gb|--------------------------|
Db|--------------------------|
Ab|-5-8p5\-3-5--5-5-8p5\-3-5-|
Db|--------------------------|

Guitar 3
eb|--------------------------------------|
Bb|--------------------------------------|
Gb|--------------------------------------|
Db|-5-7p5\-2-3--3-5-7p5\-2-3--3-5-7p5\-2-|
Ab|--------------------------------------|
Db|--------------------------------------|

Final Time
eb|--------------------------|
Bb|--------------------------|
Gb|--------------------------|
Db|-5-7p5\-2-3--3-5-7p5\-2-3-|
Ab|--------------------------|
Db|--------------------------|


Riff 7 (Solo Rhythm)
eb|-------------------------------------|
Bb|-------------------------------------|
Gb|-------------------------------------|
Db|-------------------------------------|
Ab|-0-0-0-3-3-3-8-8-8-7/8-8-8-7/8-8-7-6-|
Db|-0-0-0-3-3-3-8-8-8-7/8-8-8-7/8-8-7-6-|

Ending:
eb|----------------------------|
Bb|----------------------------|
Gb|----------------------------|
Db|----------------------------|
Ab|-0-0-0-0-0-0-0-0-----0------|
Db|-0-0-0-0-0-0-0-0-...-0-//\\-|
    * * * * * * * *     *


Solo
eb|-----------------------------------------------------|
Bb|-----------------------------------------------------|
Gb|-----------------------------------------------------|
Db|-----------------------------------------------------|
Ab|-----------------------------------------------------|
Db|-----------------------------------------------------|

eb|-----------------------------------------------------|
Bb|-----------------------------------------------------|
Gb|-----------------------------------------------------|
Db|-----------------------------------------------------|
Ab|-----------------------------------------------------|
Db|-----------------------------------------------------|

eb|-----------------------------------------------------|
Bb|-----------------------------------------------------|
Gb|-----------------------------------------------------|
Db|-----------------------------------------------------|
Ab|-----------------------------------------------------|
Db|-----------------------------------------------------|

eb|-----------------------------------------------------|
Bb|-----------------------------------------------------|
Gb|-----------------------------------------------------|
Db|-----------------------------------------------------|
Ab|-----------------------------------------------------|
Db|-----------------------------------------------------|

End Solo

Play Riff 4  

Outro                         x3
eb|---------------------------------|
Bb|---------------------------------|
Gb|---------------------------------|
Db|---------------------------------|
Ab|-0-0-0-3-3-3-8-8-8-3-3-3-7-7-6-5-|
Db|-0-0-0-3-3-3-8-8-8-3-3-3-7-7-6-5-|
                             x3
eb|---------------------------|
Bb|---------------------------|
Gb|---------------------------|
Db|---------------------------|
Ab|-8-8-8-8-8-8-8-8-8-8-8-8-0-|
Db|-8-8-8-8-8-8-8-8-8-8-8-8-0-|

eb|---------------------------|
Bb|---------------------------|
Gb|---------------------------|
Db|---------------------------|
Ab|-0--0--0--0--0----0--0--0--|
Db|-0--0--0--0--0----0--0--0--|
Comments