Anthrax - Antisocial Chords & Tabs

 

Antisocial Chords & Tabs

Anthrax Chords & Tabs

Version: 1 Type: Tab 0 ratings
1 star 2 stars 3 stars 4 stars 5 stars
comments

Antisocial Tab

   
Notation:
^   =  bend [ ^ = half, ^^ = whole, etc. ]
^r  =  bend and release
x   =  mute with fret-hand
*   =  mute with palm-hand
X\\ =  pick slide
h   =  hammer-on
p   =  pull-off
~   =  vibrato
t   =  tap-on
/   =  slide up
\   =  slide down
h.  =  harmonics
ah  =  artificial harmonic
(9) =  ghost note
tm  =  trem picking
tr  =  trill

THIS SONG IS ACTUALLY A LITTLE HARD TO PLAY AT FIRST BUT IT GETS EASY AFTER A WHILE.

Tuning: Standard


Riff 1 (Keep chords ringing)                    x2
e|--------------------------3----3------3----3---|
B|-------5-3---------5-3----3------3----3------3-|
G|--------------------------0-----------0--------|
D|--5-----------5-----------0-----------0--------|
A|--3-----------3-----------2-----------2--------|
E|--3-----------3-----------3-----------3--------|


Riff 2 (number of notes changes during verse, but the same chords
        are used)
e|---------------------------------|
B|---------------------------------|
G|---------------------------------|
D|-----7-----7---7-----7-----7-7-7-|
A|-5-5-5-5-5-5-5-5-5-5-5-5-5-5-5-5-|
E|---------------------------------|
   * *   * *   *   * *   * *     
e|---------------------------------|
B|---------------------------------|
G|---------------------------------|
D|-----8-----8---8-----8---8-8-8-5-|
A|-5-5-5-5-5-5-5-5-5-5-5-5-5-5-5-3-|
E|---------------------------------|
   * *   * *   *   * *   *  
e|---------------------------------|
B|---------------------------------|
G|---------------------------------|
D|---5-----5---5-----5-----5-5-5---|
A|-3-3-3-3-3-3-3-3-3-3-3-3-3-3-3---|
E|---------------------------------|
   *   * *   *   * *   * * 
e|---------------------------------|
B|-----------------3-3-2-2--2-2-2--|
G|-----------------2-2-2-2--2-2-2--|
D|-----2-----2---------------------|
A|-0-0-0-0-0-0-0-0-----------------|
E|---------------------------------|
   * *   * *   * * 


Play Riff 2 through verse, but last time, use this
for the last bar instead:
e|--------------------------------------|
B|--------------------------------------|
G|--------------------------------------|
D|--2------2------2------2--------3-----|
A|--0------0------0------0--0-3-5---5-3-|
E|--------------------------------------|
                            * * * * * * 
   "Don't you realize..."


Riff 3
e|----------------------------------|
B|----------------------------------|
G|--7-------------------------------|
D|--7----7-5------------------3-----|
A|--5----5-3----5----3--0-3-5---5-3-|
E|--------------3----1--------------|
                        * * * * * *
     "You're anti..."
e|-----------------------------------------------|
B|-----------------------------------------------|
G|-----------------------------------------------|
D|--7------5-------------------------------3-----|
A|--5------3-0-3-0-3-0-3---5------3--0-3-5---5-3-|
E|-------------------------3------1--------------|
             * * * * * *             * * * * * *
     "You're anti..."
e|----------------------------------|
B|----------------------------------|
G|--7-------------------------------|
D|--7----7-5------------------3-----|
A|--5----5-3----5----3--0-3-5---5-3-|
E|--------------3----1--------------|
                        * * * * * *
     "You're anti..."
e|-----------------------------------------------|
B|-----------------------------------------------|
G|-----------------------------------------------|
D|--7------5-----------------------------------7-|
A|--5------3----5------------------------------5-|
E|--------------3--1-3-1-3-1-3-1-3-1-3-1-3-1-3---|
                   * * * * * * * * * * * * * * 
     "You're anti..."

[ Tab from: http://www.guitartabs.cc/tabs/a/anthrax/antisocial_tab.html ]
Play Riff 2   "Oh mister time..."
Play Riff 3   but leave off last chord

Riff 1a (Keep chords ringing)
e|--------------3----3---|
B|-------5-3----3------3-|
G|--------------0--------|
D|--5-----------0--------|
A|--3-----------2--------|
E|--3-----------3--------|
    

Riff 4
e|---------------|
B|---------------|
G|---------------|
D|-------3-----7-|
A|-0-3-5---5-3-5-|
E|---------------|
   * * * * * *
e|----------------------------------|
B|-[-dive w/-]----------------------|
G|-[-whammy--]----------------------|
D|-9~\----------5-----------3-----7-|
A|-7~\----------3-----0-3-5---5-3-5-|
E|----------------------------------|
                      * * * * * * 

e|---------------------------------|
B|--[-dive w/-]--------------------|
G|--[-whammy--]--------------------|
D|-10~\----------5-----------3-----|
A|--8~\----------3-----0-3-5---5-3-|
E|---------------------------------|
                        * * * * * * 

Riff 5 (solo rhythm)
e|-------------------------------|
B|-------------------------------|
G|-------------------------------|
D|-7---7-----7---7-----7---7-7-7-|
A|-5-5-5-5-5-5-5-5-5-5-5-5-5-5-5-|
E|-------------------------------|
     *   * *   *   * *   *      
e|-------------------------------|
B|-------------------------------|
G|-------------------------------|
D|-5---5-----5---5-----5---5-5-5-|
A|-3-3-3-3-3-3-3-3-3-3-3-3-3-3-3-|
E|-------------------------------|
     *   * *   *   * *   *      

Riff 6
e|---------------------------------|
B|---------------------------------|
G|---------------------------------|
D|-----7-----7---7-----7-----7-7-7-|
A|-5-5-5-5-5-5-5-5-5-5-5-5-5-5-5-5-|
E|---------------------------------|
   * *   * *   *   * *   * *
e|-------------------------------|
B|-------------------------------|
G|-------------------------------|
D|-5--------------5--------------|
A|-3--0-3-0-3-3-0-3--0-3-0-3-3-0-|
E|-------------------------------|

e|---------------------------------|
B|---------------------------------|
G|---------------------------------|
D|-7---7-----7---7-----7-----7-7-7-|
A|-5-5-5-5-5-5-5-5-5-5-5-5-5-5-5-5-|
E|---------------------------------|
     *   * *   *   * *   * *    
                                x2
e|-------------------------------|
B|-------------------------------|
G|-------------------------------|
D|-5--------------5--------------|
A|-3--0-3-0-3-3-0-3--0-3-0-3-3-0-|
E|-------------------------------|


Play Riff 2   "You're a train ride..."
Play Riff 3   "You're anti..."

Riff 1b (Keep chords ringing)
e|-------------------3---|
B|-------5-3-----------3-|
G|-----------------------|
D|--5--------------------|
A|--3-----------5--------|
E|--3-----------3--------|

When singing starts over riff 1b, it changes to this:
e|------------------------------------------|
B|------------------------------------------|
G|------------------------------------------|
D|--5-------------------5-------------------|
A|--3---------5---------3----------5--------|
E|------------3--------------------3--------|
   "Antisocial..."

After awhile, riff 1b turns into this:
e|---------------------------------|
B|---------------------------------|
G|---------------------------------|
D|---------------5-----------------|
A|-333333333333333---------------5-|
E|-----------------333333333333333-|
   **************  **************

Ending:
e|-----------------------------------------|
B|-----------------------------------------|
G|-----------------------------------------|
D|--7--7-5--7-5--7-5-----------------------|
A|--5--5-3--5-3--5-3--------5--------------|
E|--------------------------3--[fade out]--|

I THINK I SHIT MYSELF!!
Comments