Anouk - Sacrifice Chords & Tabs

 

Sacrifice Chords & Tabs

Anouk Chords & Tabs

Version: 1 Type: Tab 0 ratings
1 star 2 stars 3 stars 4 stars 5 stars
comments

Sacrifice Tab

   
#-----------------------------------------------------------------------------#
#-- File created with Instab - http://www.pconline.com/~smcarey/instab.html --#
#-----------------------------------------------------------------------------#

Author/Artist: Anouk
Title: Sacrifice
Album: Urban Solitude
Transcribed by: Gerard Ruiter
Email: gerard_rulezzz@hotmail.com

This is the TAB of Sacrifice how I play it. But I think it's 
a pretty good TAB. If you have a better one, please
e-mail me at gerard_rulezzz@hotmail.com

-|--------0-----|--------0-----|-0-----------|-0------0---|-------------------
-|--------0-----|--------0-----|-0-----------|-0----------|-------------------
-|-----1--1-----|-----8--8-----|-11----------|-6---6------|-------------------
-|------2-2-----|------9-9-----|-12----------|-7----7-----|-------------------
-|---2----2-----|---9----9-----|-12----------|-7-7--------|-------------------
-|-0------0-----|-7------7-----|-10----------|-5----------|-------------------
      ^E^             ^B^            ^D^          ^A^                         

-|-0------------|-0------------|-0-----------|-0----------|-------------------
-|-0------------|-0------------|-0-----------|-0----------|-------------------
-|-13-----------|-8------------|-11----------|-6----------|-------------------
-|-14-----------|-9------------|-12----------|-7----------|-------------------
-|-14-----------|-9------------|-12----------|-7------0---|-------------------
-|-0------------|-7------------|-10----------|-5-----0--0-|-------------------
      ^E^             ^B^            ^D^          ^A^   etc.                  

-|-0------------|-0---------0/-|-0-----------|-0-------0/-|-------------------
-|-0------------|-0---------0/-|-0-----------|-0-------0/-|-------------------
-|-13-----------|-8---------8/-|-11----------|-6-------6/-|-------------------
-|-14-----------|-9---------9/-|-12----------|-7-------7/-|-------------------
-|-14-----------|-9---------9/-|-12----------|-7-------7/-|-------------------
-|-0------------|-7---------7/-|-10----------|-5-------5/-|-------------------
                                                                              

-|-0------------|-0--------0-/-|-0-----------|-0-------0/-|-------------------
-|-0------------|-0--------0-/-|-0-----------|-0-------0/-|-------------------
-|-1------------|-8--------8-/-|-11----------|-6-------6/-|-------------------
-|-2------------|-9--------9-/-|-12----------|-7-------7/-|-------------------
-|-2------------|-9-------9-9/-|-12----------|-7-------7/-|-------------------
-|-0------------|-7-------7-7/-|-10----------|-5-------5/-|-------------------
                                                                              

-|-0----0-------|-0--------0-/-|-0-----------|-0-0-0-0-0--|-------------------
-|-0------------|-0--------0-/-|-0-----------|-0-0-0-0-0--|-------------------
-|-1-1----------|-8--------8-/-|-11----------|-6-6-6-6-6--|-------------------
-|-2--2---------|-9--------9-/-|-12----------|-7-7-7-7-7--|-------------------
-|-2------------|-9-------9-9/-|-12----------|-7-7-7-7-7--|-------------------
-|-0------------|-7-------7-7/-|-0-----------|-5-5-5-5-5--|-------------------
                                                                              

-|-0------------|-0-0----0-----|-0--0--0--0--|-----0---0---0--0-|-------------
-|-0------------|-0-0----------|-0--0--0--0--|------------------|-------------
-|-1------------|-8-8---8-8----|-11-11-11-11-|----7-7---7---7---|-------------
-|-2------------|-9-9--9---9---|-12-12-12-12-|---7---7---7---7--|-------------
-|-2------------|-9-9-9--------|-12-12-12-12-|------------------|-------------
-|-0----0-------|-7-7----------|-0--0--0--0--|-5----------------|-------------
                                                                              

-|--------0--0--|-0-0-0-0-0-0--|-0--0--0--0--|--------0--0/-|-----------------
-|--------0--0--|-0-0-0-0-0-0--|-0--0--0--0--|-----------0/-|-----------------
-|---13---13-13-|-8-8-8-8-8-8--|-11-11-11-11-|-----6-----6/-|-----------------
-|-14--14-14-14-|-9-9-9-9-9-9--|-12-12-12-12-|------7----7/-|-----------------
-|-14--14-14-14-|-9-9-9-9-9-9--|-12-12-12-12-|---7-------7/-|-----------------
-|-0---0--0--0--|-7-7-7-7-7-7--|-0--0--0--0--|-5---------5/-|-----------------
   E-----B-----D-----A-----E-----B-----D-----A                                
[ Tab from: http://www.guitartabs.cc/tabs/a/anouk/sacrifice_tab.html ]
-|-0-0-0-0-0-0--|-0-0-0-0-0-0--|-0--0--0--0--|-0-0-0-0-0-0-|------------------
-|-0-0-0-0-0-0--|-0-0-0-0-0-0--|-0--0--0--0--|-0-0-0-0-0-0-|------------------
-|-1-1-1-1-1-1--|-8-8-8-8-8-8--|-11-11-11-11-|-6-6-6-6-6-6-|------------------
-|-2-2-2-2-2-2--|-9-9-9-9-9-9--|-12-12-12-12-|-7-7-7-7-7-7-|------------------
-|-2-2-2-2-2-2--|-9-9-9-9-9-9--|-12-12-12-12-|-7-7-7-7-7-7-|------------------
-|-0-0-0-0-0-0--|-7-7-7-7-7-7--|-10-10-10-10-|-5-5-5-5-5-5-|------------------
                                                                              

-|-0--0--0--0---|-0-0----0-----|-0--0--0--0--|-0-----------|------------------
-|-0--0--0--0---|-0-0----------|-0--0--0--0--|-0-----------|------------------
-|-13-13-13-13--|-8-8---8-8----|-11-11-11-11-|-6-----------|------------------
-|-14-14-14-14--|-9-9--9---9---|-12-12-12-12-|-7-----------|------------------
-|-14-14-14-14--|-9-9-9--------|-12-12-12-12-|-7-----------|------------------
-|-0--0--0--0---|-7-7----------|-10-10-10-10-|-5-----------|------------------
                                                                              

-|-0------------|-0------------|-0-----------|-0-----------|------------------
-|-0------------|-0------------|-0-----------|-0-----------|------------------
-|-13-----------|-8------------|-11----------|-6-----------|------------------
-|-14-----------|-9----9-10-11-|-12----------|-7-----------|------------------
-|-14-----------|-9----9-10-11-|-12----------|-7-----------|------------------
-|-0------------|-7----7-8--9--|-10----------|-5-----------|------------------
                                                                              

-|-0------------|-0------------|-0-----------|-0-----------|------------------
-|-0------------|-0------------|-0-----------|-0-----------|------------------
-|-1------------|-8------------|-11----------|-6-----------|------------------
-|-2------------|-9------------|-12----------|-7-----------|------------------
-|-2------------|-9------------|-12----------|-7-----------|------------------
-|-0------------|-7------------|-10----------|-5-----------|------------------
                                                                              

-|-0------------|-0------------|-0-----------|-0------------|-----------------
-|-0------------|-0------------|-0-----------|-0------------|-----------------
-|-1------------|-8------------|-11----------|-6------------|-----------------
-|-2------------|-9------------|-12----------|-7------------|-----------------
-|-2------------|-9------------|-12----------|-7-0----------|-----------------
-|-0------------|-7------------|-10----------|-5--7-9/10/12-|-----------------
                                                                              

-|-0------------|-0------------|-0-----------|-0-----------|------------------
-|-0------------|-0------------|-0-----------|-0-----------|------------------
-|-13-----------|-8------------|-11----------|-6-----------|------------------
-|-14-----------|-9----9-10-11-|-12----------|-7-----------|------------------
-|-14-----------|-9----9-10-11-|-12----------|-7-----------|------------------
-|-0------------|-7----7-8--9--|-10----------|-5-----------|------------------
                                                                              

-|-0------------|-0-----0------|-0-----------|-0------------|-----------------
-|-0------------|-0------------|-0-----------|-0------------|-----------------
-|-1------------|-8----8-8-----|-11----------|-6------------|-----------------
-|-2------------|-9---9---9----|-12----------|-7------------|-----------------
-|-2------------|-9--9---------|-12----------|-7-0----------|-----------------
-|-0------------|-7------------|-10----------|-5--7-9/10/12-|-----------------
                                                                              

-|-0------------|0-----0-------|-0-----------|-0-----------|------------------
-|-0------------|0-------------|-0-----------|-0-----------|------------------
-|-13-----------|8----8-8------|-11----------|-6-----------|------------------
-|-14-----------|9---9---9-----|-12----------|-7-----------|------------------
-|-14-----------|9--9----------|-12----------|-7-----------|------------------
-|-0------------|7-------------|-10----------|-5-----------|------------------
                                                                              

-|--------------|--------------|----------------------------------------------
-|-------------5|7/9------9----|----------------------------------------------
-|-----------4--|-------9------|----------------------------------------------
-|-----2-4/6----|-----9--------|----------------------------------------------
-|---2----------|--------------|----------------------------------------------
-|-0------------|--------------|----------------------------------------------
 Greatings Gerard                                                             

Comments