Anouk - R U Kidding Me Chords & Tabs

 

R U Kidding Me Chords & Tabs

Anouk Chords & Tabs

Version: 2 Type: Bass Tab 0 ratings
1 star 2 stars 3 stars 4 stars 5 stars
comments

R U Kidding Me Bass Tab

   
Song: R U Kidding me
Artist: Anouk
From: A van Oijen (avo@telebyte.nl)
Subject: BASSTAB: R U Kidding me - Anouk

This is a complete transcription off the song R U Kidding me by Anouk. It was a
difficult quest but after digitizing the song and slowing down but keeping the pitch
on my computer (using Cool Edit) I was able to write it down.

* Slides are represented by a > (eq. 4 > 8 means: slide from 4 to 8)
* Gostnotes are represented by a * after the number (eq. 4* means a ghostnote on 4)
* Taps are represented by a T (e.q. 4T6 means strike 4 and tap 6... 
  4T6P4 means strike 4, tap 6 and pulloff 6 (holding 4) :=) )
* Ritme isn't presented but the closer the numbers are together, the faster they
  should be played after one another. Also using the song as backup could be usefull.

Have fun...

Vers 1:
       B         F#        G#m           E
G-+---------+---------+----------+---------------+
D-|--9------|---------|-6--------|---------------|
A-|---11--9-|--9------|--6-4-----|------------2--|
E-+---------+---11--9-+------6-4-+-0--0--0>4-----+

       B           F#           E             E
G-+-----------+----------+-------------+---------------+
D-|--------4--|----------|-------------|---------------|
A-|-22-2>6----|-------4--|--7*7--------|------------2--|
E-+-----------+-2-2>6----+------9*9--7-+-0--0--0>4-----+

       B         F#        G#m           E
G-+---------+---------+----------+---------------+
D-|--9------|---------|-6--------|---------------|
A-|---11--9-|--9------|--6-4-----|------------2--|
E-+---------+---11--9-+------6-4-+-0--0--2>4-----+

       B           F#          E           E
G-+-----------+----------+----------+-------------+
D-|--------4--|----------|----------|-------------|
A-|-22-2>6----|-------4--|-77777777-|-77-6--4--2--|
E-+-----------+-2-2>6----+----------+-------------+


Chorus 1:
       E         B         A          B
G-+---------+---------+---------+------------+
D-|---------|---------|---------|------------|
A-|---------|-2--2*2--|---------|--2--2>4-6--|
E-+-0--0*0--+---------+-5--5*5--+------------+

       E         B       Asus2             B
G-+---------+---------+---------+-------------+
D-|---------|---------|---------|---------1---|
A-|-7--7*7--|-2--2*2--|---------|-2--2*2-4-4--|
E-+---------+---------+-5--5*5--+-------------+

       E         B         A         B
G-+---------+---------+---------+---------+
D-|---------|---------|---------|---------|
A-|---------|-2--2*2--|---------|-2--2*2--|
E-+-0--0*0--+---------+-5--5*5--+---------+

     Asus2     Asus2     Asus2         Asus2
G-+----------+--------+---------+-----------------+
D-|----------|--------|---------|-----------------|
A-|-2>12----7|--------|--7>12-hold 12-slide down--|
E-+----------+-5*5----+---------+-----------------+


Vers 2:
       B         F#        G#m           E
G-+--------+----------+-----------+--------------+
D-|--------|----------|---------6-|--------------|
A-|--2-----|-----1--4-|-----4-6---|-7--7--4-4----|
E-+---4--2-+--2-------+-4-7-------+-----------7--+

       B         F#         E            E
G-+----------+---------+--9-------+-------------+
D-|----------|---------|---11--9--|-------------|
A-|--------9-|-9-------|----------|-7--7--------|
E-+-7-7>11---+--11--9--+----------+-------9--7--+

       B         F#        G#m           E
G-+--------+----------+----------+---------------+
D-|--------|----------|-6--------|---------------|
A-|--2-----|-----1--4-|--6-4-----|------------2--|
E-+---4--2-+--2-------+------6-4-+-0--0--2>4-----+

       B            F#          E           E
G-+-----------+------------+-----------+-----------------+
D-|-----------|---------11-|-----------|-----------------|
A-|---------9-|--9-9>13----|--7--------|----------2>7>2--|
E-+--7-7>11---+------------+-----9--7--+--0--0-----------+


Vers 3:
       B         F#        G#m           E
G-+--------+-----------+----------+--------------+
D-|--------|-----------|----------|--------------|
A-|--2-----|---------4-|-------6--|-7*7----------|
E-+---4--2-+-2*2-2>6---+-4--7-----+------9-9--7--+

         B          F#         G#m            E
G-+-------------+---------+-----------+---------------+
D-|-------------|---------|-----------|---------------|
A-|-2*2-2-2-2*2-|---------|-----------|-7*7777-7*7777-|
E-+-------------+-2*2-2-2-+-4*4-4-4-7-+---------------+

         B             F#         G#m           E
G-+--------------+------------+----------+------------+
D-|--------------|------------|----------|------------|
A-|--2--2--2--2--|------------|----------|------------|
E-+--------------+-2*22222222-+-44444444-+-000000-0>4-+
[ Tab from: http://www.guitartabs.cc/tabs/a/anouk/r_u_kidding_me_btab_ver_2.html ]
       B    BREAK             E         E
G-+----------+-----------+---------+---------+
D-|----------|-----------|---------|---------|
A-|-22222----|-----------|--7----HOLD 7 -----|
E-+----------+-----------+---------+---------+


Chorus 2:
       E         B         A          B
G-+---------+---------+---------+-------------+
D-|---------|---------|---------|-------------|
A-|---------|-2--2*2--|---------|--2-2*2>4-6--|
E-+-0--0*0--+---------+-5--5*5--+-------------+

       E         B       Asus2           B
G-+---------+---------+---------+-----------------+
D-|---------|---------|---------|-----------------|
A-|-7--7*---|-2--2*2--|---------|-2*2-2*2-4*4-6*6-|
E-+------7--+---------+-5--5*5--+-----------------+

       E         B         A         B
G-+---------+---------+---------+---------+
D-|---------|---------|---------|---------|
A-|---------|-2--2*2--|---------|-2--2*2--|
E-+-0--0*0--+---------+-5--5*5--+---------+

     Asus2     Asus2    Asus2       Asus2
G-+----------+------+---------+--------------+
D-|----------|------|---------|--------------|
A-|-2>12----7|-0*0--|-0>7--12T14P12--7>12----|
E-+----------+------+---------+--------------+


BRIDGE
      F#m       F#m       F#m        F#m
G-+---------+---------+---------+----------+
D-|---------|---------|---------|----------|
A-|--0>9----HOLD 9, BUT ONCE PLAY: 0>12-9--|
E-+---------+---------+---------+----------+

     Asus2     Asus2     Asus2      Asus2
G-+---------+---------+---------+-----------+
D-|---------|---------|---------|-----------|
A-|--0>12-HOLD 12 BUT SLIDE DOWN ON THE END-|
E-+---------+---------+---------+-----------+

     Emaj7     B+4     Asus2     Asus2
G-+--------+--------+---------+------------+
D-|--------|--------|---------|------------|
A-|--------|-2-HOLD-|---------|-------7----|
E-+-0-HOLD-+--------+-5-HOLD--+-5>9-----9--+

     Emaj7     B+4      Asus2      Asus2
G-+--------+--------+----------+--------------+
D-|--------|--------|----------|--------------|
A-|--------|-2 HOLD-|----------|-12 (8 times)-|
E-+-0-HOLD-+--------+-55555555-+--------------+


Chorus 3 (OUTRO):
       E          B          A           B
G-+---------+-----------+---------+------------+
D-|---------|-----------|---------|------------|
A-|---------|-2*2--2*2--|---------|-2-2*4-4*6--|
E-+-0--0*0--+-----------+-5--5*5--+------------+

       E         B        Asus2          Asus2
G-+---------+---------+-----------+----------------+
D-|---------|---------|-----------|----------------|
A-|---------|-2--2*2--|--12-12*12-|-12*12-12*12-12-|
E-+-0--0*0--+---------+-----------+----------------+

       E          B          A           B
G-+---------+-----------+---------+-----------+
D-|---------|-----------|---------|-----------|
A-|---------|-2*2--2*2--|---------|-2-2*4--6--|
E-+-0--0*0--+-----------+-5--5*5--+-----------+

       E         B         Asus2          Asus2
G-+---------+---------+-------------+---------------+
D-|---------|---------|-------------|---7-----------|
A-|---------|-2--2*2--|--12-11*11-9-|-7---9-7>DOWN--|
E-+-0--0*0--+---------+-------------+---------------+

         E            B          A           B
G-+--------------+---------+---------+-----------+
D-|--------------|---------|---------|-----------|
A-|------2---2---|-2--2*2--|---------|-2-2*4--6--|
E-+-0--0---4---4-+---------+-5--5*5--+-----------+

       E         B         Asus2             Asus2
G-+---------+---------+----------------+-----------------+
D-|---------|---------|----------------|-----------------|
A-|---------|-2--2*2--|----------------|--------5-5--7-7-|
E-+-0--0*0--+---------+--5*5--5*5--5*9-+-9*9-9-----------+

       E         B            A            B
G-+---------+---------+--------------+-----------+
D-|---------|---------|--------------|-----------|
A-|---------|-2--2*2--|-2*---------7-|-2-2*4--6--|
E-+-0--0*0--+---------+---5--5*5>9---+-----------+

       E         B           Asus2            Asus2
G-+---------+---------+------------------+------------+
D-|---------|---------|------------------|------------|
A-|---------|-2--2*2--|--12-11*11-9*9>14-|-14---------|
E-+-0--0*0--+---------+------------------+-----12--7--+

       E         B            A         B
G-+----------+----------+----------+----------+
D-|----------|----------|----------|----------|
A-|----------|-2--2*2-2-|----------|-2--2*2-2-|
E-+-0--0*0-0-+----------+-5--5*5-5-+----------+

       E          B           Asus2           Asus2
G-+----------+----------+------------------+---------+
D-|----------|----------|------------------|---------|
A-|----------|-2--2*2-2-|--0>12 HOLD ON 12 UNTIL END-|
E-+-0--0*0-0-+----------+------------------+---------+

To arrange all the bits, please listen to the recording. I'm sorry for
the not standard notations, but I dont know the standard ones.

Armand
avo@telebyte.nl
Comments