Anouk - Margarita Chum Acoustic Chords & Tabs

 

Margarita Chum Acoustic Chords & Tabs

Anouk Chords & Tabs

Version: 1 Type: Tab 0 ratings
1 star 2 stars 3 stars 4 stars 5 stars
comments

Margarita Chum Acoustic Tab

   
Song: Margarita chum(accoustic version)
Artist: Anouk
Tabbed by: Marnus van der Merwe

You're gonna have to listen to the song for some of the strumming patterns,
especially in the kinda bridge section between the verse and the chorus.
Play with capo on 1st fret. tabbed with capo as open string(in other words
every thing is actually 1 fret higher than on the tab)


Verse

           Cadd9                       emadd9              Cadd9                            
E||------------3------------|-----------------------|------------3----------|
B||-------3----3------------|-----------------------|-------3---------------|
G||-----0---0---------------|------------0----------|-----0---0-------------|
D||-------------------0-2---|-------4---------------|-----------------------|
A||--3----------------------|-----2---2-------------|--3--------------------|
E||-------------------------|--0--------------------|-----------------------|


         emadd9                      Cadd9                      emadd9                   
--------------------------|------------3----------|-----------------------|
--------------------------|-------3---------------|-----------------------|
------------0-------------|-----0---0-------------|------------0----------|
-------4---------4--------|-----------------------|-------4---------------|
-----2---2----------0-2---|--3--------------------|-----2---2-------------|
--0-----------------------|-----------------------|--0--------------------|


        Cadd9                  emadd9                         Cadd9                      
------------3----------|--------------------------|------------3----------|
-------3---------------|--------------------------|-------3---------------|
-----0---0-------------|------------0-------------|-----0---0-------------|
-----------------------|-------4---------4--------|-----------------------|
--3--------------------|-----2---2----------0-2---|--3--------------------|
-----------------------|--0-----------------------|-----------------------|


       emadd9                        Cadd9                emadd9                        
--------------------------|------------3----------|-----------------------|
--------------------------|-------3---------------|-----------------------|
------------0-------------|-----0---0-------------|------------0----------|
-------4---------4--------|-----------------------|-------4---------------|
-----2---2----------0-2---|--3--------------------|-----2---2-------------|
--0-----------------------|-----------------------|--0--------------------|


these first two keep the same picking as the verse, then gradually fades
into normal strumming. listen to the song
  Asus2               Cadd9               G                 
--0----------------|--3----------------|--3----------------|
--0----------------|--3----------------|--3----------------|
--2----------------|--0----------------|--0----------------|
--2----------------|--2----------------|--0----------------|
--0----------------|--3----------------|--2----------------|
-------------------|-------------------|--3----------------|
with me    it would only...etc

  D                   Cadd9               Em                
--2----------------|--3----------------|--0----------------|
--3----------------|--3----------------|--0----------------|
--2----------------|--0----------------|--0----------------|
--0----------------|--2----------------|--2----------------|
-------------------|--3----------------|--2----------------|
-------------------|-------------------|--0----------------|

[ Tab from: http://www.guitartabs.cc/tabs/a/anouk/margarita_chum_acoustic_tab.html ]
  G                   D                   Asus2               
--3----------------|--2----------------|--0------------------|
--3----------------|--3----------------|--0------------------|
--0----------------|--2----------------|--2------------------|
--0----------------|--0----------------|--2------------------|
--2----------------|-------------------|--0--------------0-2-|
--3----------------|-------------------|---------------------|
							take mine
Bridge 


     Cadd9                       emadd9                  G                 
------------3----------|-----------------------|--3----------------|
-------3---------------|-----------------------|--3----------------|
-----0---0-------------|------------0----------|--0----------------|
-----------------------|-------4---------------|--0----------------|
--3--------------------|-----2---2-------------|--2----------------|
-----------------------|--0--------------------|--3----------------|
but now		that   i have finally...

  D                   Cadd9               Em                
--2----------------|--3----------------|--0----------------|
--3----------------|--3----------------|--0----------------|
--2----------------|--0----------------|--0----------------|
--0----------------|--2----------------|--2----------------|
-------------------|--3----------------|--2----------------|
-------------------|-------------------|--0----------------|


  G                   D                   Asus2             
--3----------------|--2----------------|--0----------------|
--3----------------|--3----------------|--0----------------|
--0----------------|--2----------------|--2----------------|
--0----------------|--0----------------|--2----------------|
--2----------------|-------------------|--0----------------|
--3----------------|-------------------|-------------------|


  Cadd9               Cadd9              
--3----------------|--3----------------|
--3----------------|--3----------------|
--0----------------|--0----------------|
--2----------------|--2----------------|
--3----------------|--3----------------|
-------------------|-------------------|

take mine(hold note)


Chorus
G				    F#M7add11(easier than it sounds)
my margarita chum, that's what you are
        Em
I'm laughing my ass off when you sing
Cadd9
everybody's happy now
      G				F#M7add11
the Luna-queens become the lunatics
          Em
while Janis Joplin tells her friend
        Cadd9
he's just a one-night stand


F#M7aDD1 look like this

---2---------------|
---2---------------|
---4---------------|
---4---------------|
---2---------------|
---2---------------|

easy isnt it?

Second verse is played exactly like the first, except you end the 
verse like you ended the bridge section and go into the final chorus again

Here, if it's any consolation, take mine
no, no need for explanations, it's alright
with me it would only be redundant, see
if you only try to keep it all inside
I lay me down with your decision
blow your mind, don't hesitate
this devil takes your pain away
take mine

but now that I have finally found you
I'm gonna take it one step at a time
let's try keep this good thing going
you tell a joke, I nearly die
we have to laugh until we cry
take mine, please take mine

my margarita chum, that's what you are
I'm laughing my ass off when you sing
everybody's happy now
the Luna-queens become the lunatics
while Janis Joplin tells her friend
he's just a one-night stand

I hear you retching in my bathroom, but I don't mind
no, I'll clean it up tomorrow, just sit down
again you choke me when you grumble
you and me we're so much like RG
and now I'll show you how to tango
I think it's time for us to say
that this has been a prefect day and retire, please retire

my margarita chum that's what you are
I'm laughing my ass of when you sing
everybody's happy now
a v.i.p is what you are to me
I love it when you take me on your lonely Sunday stroll

And there you go. with a little bit of brains you should be able to figure it out. 
ENjoy.
Comments