Anouk - Girl Chords & Tabs

 

Girl Chords & Tabs

Anouk Chords & Tabs

Version: 1 Type: Bass Tab 0 ratings
1 star 2 stars 3 stars 4 stars 5 stars
comments

Girl Bass Tab

This is the Bass tab for Girl, I hope that there are not too many mistakes in it...

G-------------------------------------------------------------------------|
D-------------------------------------------------------------------------|
A-4-4-4-4--------------7-7-7-7-7-7-6-7-6----------------------------------|
E----------0h5-5-5-5------------------------------------------------------|3X


G--------------------------------------------------------------------|
D--------------------------------------------------------------------|
A-4-4-4-4--------7----7-7-7-7-7-76-7-6-------------------------------|
E---------0h5-5-5-5-5------------------------------------------------|


G--------------------------------------------------------------------|
D--------------------------------------------------------------------|
A-4-4-4-4--------------7-7-7-7-7-7-6-7-6-----------------------------|
E----------0h5-5-5-5-------------------------------------------------| 2X

Chorus (take out my bla and keep saying)
G--------------------------------------------------------------------|
D--------------------------------------------------------------------|
A-4-4-4-4--------------7-7-7-7-7-7-----------------------------------|
E---------0h5-5-5-5-5---------------0-0------------------------------|


G--------------------------------------------------------------------|
D--------------------------------------------------------------------|
A--------------------------------------------------------------------|
E--2/14-14/2-2/14-14/2-2/17-17/5-5/17-17/5-5-------------------------|


G--------------------------------------------------------------------|
D--------------------------------------------------------------------|
A--------------------------------------------------------------------|
E-0-12/7-7-5-5-5-5-2-2-2-2-5-5-7-------------------------------------|


G--------------------------------------------------------------------|
D--------------------------------------------------------------------|
A--------------------------------------------------------------------|
E-7/12-0-7-7--5-5-5-5/14-14-2-2-14141414141414-----------------------|
                                  (7 X 14)
End of Chorus

Girl girl girl

G--------------------------------------------------------------------|
D--------------------------------------------------------------------|
A-4-4-4-4--------7----7-7-7-7-7-76-7-6-------------------------------|
E---------0h5-5-5-5-5------------------------------------------------|


G--------------------------------------------------------------------|
D--------------------------------------------------------------------|
A-4-4-4-4-------------------------7-7-7-7-7-7-6-7-6------------------|
E----------0h5-5-(here a pause)--------------------------------------|


G--------------------------------------------------------------------|
D--------------------------------------------------------------------|
A-4-4-4-4--------7----7-7-7-7-7-76-7-6-------------------------------|
E---------0h5-5-5-5-5------------------------------------------------|


G--------------------------------------------------------------------|
D--------------------------------------------------------------------|
A-4-4-4-4--------7----7-7-7-7-7-76-7-6-------------------------------|
E---------0h5-5-5-5-5------------------------------------------------|

Chorus (take out my bla and keep saying)
G--------------------------------------------------------------------|
D--------------------------------------------------------------------|
A-4-4-4-4--------------7-7-7-7-7-------------------------------------|
E----------0h5-5-5-5-5-----------0-0---------------------------------|


G--------------------------------------------------------------------|
D--------------------------------------------------------------------|
A--------------------------------------------------------------------|
E--2/14-14/2-2/14-14/2-2/17-17/5-5/17-17/5-5-------------------------|

[ Tab from: http://www.guitartabs.cc/tabs/a/anouk/girl_btab.html ]
G--------------------------------------------------------------------|
D--------------------------------------------------------------------|
A--------------------------------------------------------------------|
E-0-12/7-7-5-5-5-5-2-2-2-2-5-5-7-------------------------------------|


G--------------------------------------------------------------------|
D--------------------------------------------------------------------|
A--------------------------------------------------------------------|
E-7/12-0-7-7--5-5-5-5/14-14/2-2/14-14/2-2/17-17/5-5------------------|

En of Chorus,
Solo

G--------------------------------------------------------------------|
D--------------------------------------------------------------------|
A--------------------------------------------------------------------|
E-9-9-9-9-0h5-5-5-5/12-12-12-12/7-7-7-57-----------------------------|


G--------------------------------------------------------------------|
D--------------------------------------------------------------------|
A--------------------------------------------------------------------|
E-9-9-9-9-0h5-5-5-5/12-12-12-12/7-7-7-57-----------------------------|

Chorus

G--------------------------------------------------------------------|
D--------------------------------------------------------------------|
A--------------------------------------------------------------------|
E--2/14-14/2-2/14-14/2-2/17~~----------------------------------------|


G--------------------------------------------------------------------|
D--------------------------------------------------------------------|
A--------------------------------------------------------------------|
E-0-12/7-7-5-5-5-5-2-2-2-2-5-5-7-------------------------------------|


G--------------------------------------------------------------------|
D--------------------------------------------------------------------|
A--------------------------------------------------------------------|
E-7/12-0-7-7--5-5-5-5/14-14/2-2/14-14/2-2/17-17/5-5------------------|

Chorus

you for eternity

G--------------------------------------------------------------------|
D--------------------------------------------------------------------|
A--------------------------------------------------------------------|
E-9-9-9-9-0h5-5-5-5/12-12-12-12/7-7-7-57-----------------------------| 2 X


en nu on the double!

G--------------------------------------------------------------------|
D--------------------------------------------------------------------|
A--------------------------------------------------------------------|
E-9-(12 X)-5-(12 X)-/12-(12 X)-/7-(12 X)-----------------------------| 2 X


G--------------------------------------------------------------------------------------|
D--------------------------------------------------------------------------------------|
A--------------------------------------------------------------------------------------|
E--4/16-16/4-4/16-16/4-4/16-16/4-4/16-16/4-4-0/4/16-16/4-4/16-16/4-4/16-16/4-4/16-16/4-|

That's all,
pretty easy, isn't it?

Here you have the lyrics:

Girl, Girl, Girl when I hear you talk,
oeh...my mind get's blocked girl.
Speak up cause my jaw is locked,
which is good, good for me girl.
Big hawks like a warning sign,
I'm to blind to see
Speak up yes I'm coming down
with an ice cold fever, ice cold fever
ice cold fever

Still got my hands there clinging, so I just keep going.
I don't know where I belong, could I belong to you
No, I don't know where I belong, could I belong...

Girl, Girl, Girl get it while it's hot they say,
you see I'm burning up here.
I want to but I just can't stop and it hurts,
it hurst like hell girl.
You turn me inside out and upside down
You got me head over heals
I'm stuck yes I'm coming down
with an ice cold fever, ice cold fever
ice cold fever

Still got my hands there clinging, so I just keep going.
I don't know where I belong, could I belong to you
No, I don't know where I belong, could I belong...

Could I belong...

Still got my hands there clinging, so I just keep going.
I don't know where I belong, could I belong to you
No, I don't know where I belong, could I belong...

O yeah, Could I belong...to you, you, you
To you, yeah you, to you, you, you
To you, yeah you, to you, you, you
Yeah I belong to you, To you, yeah you
Yeah I belong to you


I hope U like it.

Mr. Florian
Comments