Anoma - Tips For Tuesday Chords & Tabs

 

Tips For Tuesday Chords & Tabs

Anoma Chords & Tabs

Version: 1 Type: Tab 0 ratings
1 star 2 stars 3 stars 4 stars 5 stars
comments

Tips For Tuesday Tab

tips for tuesday
fron -buy one get one free- by
ANOMA
[ Tab from: http://www.guitartabs.cc/tabs/a/anoma/tips_for_tuesday_tab.html ]
=~~~~~~~~~~~~~~~~~~~~~~~~~~~~~~~~~~~~~~~~~~~~~~~~~~~~~~~~~~~~~~~~~~~~~~~~~~~~~~~~~~~~~=
=this tab is written by the actuall composeurs of this compostion, you can email us at=            
=anomaband@hotmail.com                                                                =
=fetalpenguin@hotmial.com                                                             =
=or poopyonmartin@aol.com                                                             =
=======================================================================================
=view our website to download this song,                                              =
=http://anoma.vze.com                                                                 =
=                                                                                     =
=there are other songs there as well.                                                 =
=~~~~~~~~~~~~~~~~~~~~~~~~~~~~~~~~~~~~~~~~~~~~~~~~~~~~~~~~~~~~~~~~~~~~~~~~~~~~~~~~~~~~~=
=  therefore, we do not want to see any copies of this songs tabulature on this site, = 
=  unless we put it there. and we'll know, o yeah, we'll know if we made it or not.   =
=======================================================================================
tuned a=444

main riff:


------0-------------0----------
------0-------------0----------
------0-------------0----------
---------[x]-----------[x]-----
-11------[x]-11-11-----[x]--11-
-9-------[x]-9--9------[x]--9--


sub main riff:
---------------------------------
---------------------------------
---------------------------------
-----------------8-8-8-8-8-8-8-8-
-7-7-7-7-7-7-7-7-6-6-6-6-6-6-6-6-
-5-5-5-5-5-5-5-5-----------------

chorus:
------------------------------------------------------/-
---------------------------------------------------12/--
-10-10-10-10-10-10-10-10-10-10-10-10-10-10-10-10--------
-11-11-11-11-11-11-11-11-11-11-11-11-11-11-11-11--------
--------------------------------------------------------
--------------------------------------------------------

Comments