Anoma - Grotten Ssoopp Chords & Tabs

 

Grotten Ssoopp Chords & Tabs

Anoma Chords & Tabs

Version: 1 Type: Tab 0 ratings
1 star 2 stars 3 stars 4 stars 5 stars
comments

Grotten Ssoopp Tab

   
grotten ssoopp
fron -self titled- by
ANOMA

=~~~~~~~~~~~~~~~~~~~~~~~~~~~~~~~~~~~~~~~~~~~~~~~~~~~~~~~~~~~~~~~~~~~~~~~~~~~~~~~~~~~~~=
=this tab is written by the actuall composeurs of this compostion, you can email us at=            
=ryanrifkin@hotmail.com                                                               =
=fetalpenguin@hotmial.com                                                             =
=or poopyonmartin@aol.com                                                             =
=======================================================================================
=view our website to download this song,                                              =
=http://anoma.vze.com                                                                 =
=                                                                                     =
=there are other songs there as well.                                                 =
=~~~~~~~~~~~~~~~~~~~~~~~~~~~~~~~~~~~~~~~~~~~~~~~~~~~~~~~~~~~~~~~~~~~~~~~~~~~~~~~~~~~~~=
=  therefore, we do not want to see any copies of this songs tabulature on this site, = 
=  unless we put it there. and we'll know, o yeah, we'll know if we made it or not.   =
=======================================================================================
tuned a=444

beginning:


EM
-0-0-0-0-0-0-0-0-0-0-0-0-0-
-0-0-0-0-0-0-0-0-0-0-0-0-0-
-1-1-1-1-1-1-1-1-1-1-1-1-1-
-2-2-2-2-2-2-2-2-2-2-2-2-2-
-2-2-2-2-2-2-2-2-2-2-2-2-2-
-0-0-0-0-0-0-0-0-0-0-0-0-0-


main verse riff
[ Tab from: http://www.guitartabs.cc/tabs/a/anoma/grotten_ssoopp_tab.html ]
 G5
---------------------------------------------
---------------------------------------------
--------5--3-----3--5--3---------------3--5--
--------------5----------5---------5---------
-5-6-------------------------5-6-------------
-3-4-------------------------3-4-------------


second verse riff
-----------------------------------------------------------------------
-----------------------------------------------------------------------
-----------------------------------------------------------------------
-----------------------------------------------------------------------
-5-6--x-xx-xx-x-x-3-4-3-4-----2-3-5~~--3-4-x-xx-xx-x-x----5-3-2--------
-3-4--x-xx-xx-x-x-3-4-3-4-3-5----------3-4-x-xx-xx-x-x-----------5-3~~~



pre chorus/chorus

 F#5      B5       D5       Bb5
------------------------------------
------------------------------------
------------------------------------
-----------4-4-4-4-7-7-7-7----------
-4-4-4-4---2-2-2-2-5-5-5-5--8-8-8-8-
-2-2-2-2--------------------6-6-6-6-


brigde1

---------------------------------------------------------------------------------
---------------------------------------------------------------------------------
-[6]-----------------------------------------------------------------------------
-[8]-----------------------------------------------------------------------------
--------11----------10-----11----------10-----11----------10-----11-----10-10-10-
------12---12-11-10----12-----12-11-10-----12----12-11-10-----12----12--11-11-11-

ssoopp

[harmonics]
-12-----12-------12-----12-----12--12-------
--------------------------------------------
----12------12------12------12----------12--
--------------------------------------------
--------------------------------------------
--------------------------------------------








Comments