Annihilator - Phoenix Rising Chords & Tabs

 

Phoenix Rising Chords & Tabs

Annihilator Chords & Tabs

Version: 1 Type: Tab 0 ratings
1 star 2 stars 3 stars 4 stars 5 stars
comments

Phoenix Rising Tab

#----------------------------------PLEASE NOTE--------------------------------#
#This file is the author's own work and represents their interpretation of the#
#song. You may only use this file for private study, scholarship, or research.#
#-----------------------------------------------------------------------------#
#-- File created with Instab - http://www.pconline.com/~smcarey/instab.html --#
#-----------------------------------------------------------------------------#

Author/Artist: Annihilator
Title: Phoenix rising
Album: Set the world on fire
Transcribed by: kishen
Email: luciferesque@yahoo.com

first attempt at tabbing. i invite all comments and 
corrections. if someone has the tabs of set the wold on fire
(the song), please mail it to me. thanks

-------------0----------------------------------------------------------------
---------6-----6------6---------6---------------------------------------------
-------0----------------5---------5-------------------------------------------
-----7--------------8-----8--8------0-----------------------------------------
-5-5--------------------------------------------------------------------------
------------------------------------------------------------------------------
 above line is layed 3 times and then the one below.         chorus: and you  
[ Tab from: http://www.guitartabs.cc/tabs/a/annihilator/phoenix_rising_tab.html ]
-----------0-----0------------------------------------------------------------
-------6-----6---6------------------------------------------------------------
-----0-----------5------------------------------------------------------------
---7-------------8------------------------------------------------------------
-5----------------------------------------------------------------------------
------------------------------------------------------------------------------
 rise                right             eyes            wings                  

-----------1-----------------0---------------1-----------------1--------------
-------------1-------------1---1-----------3---3-------------3---3------------
--------2------2---------2-------2-------2-------2---------3-------3----------
------3----------3-----2-----------2---0-----------0-----3-----------3--------
----3----------------0---------------------------------1----------------------
--1---------------------------------------------------------------------------
 night                  like           rising              like               

-----------1-----------------0---------------1-----------------1--------------
-------------1-------------1---1-----------3---3-------------3---3------------
--------2------2---------2-------2-------2-------2---------3-------3----------
------3----------3-----2-----------2---0-----------0-----3-----------3--------
----3----------------0---------------------------------1----------------------
--1---------------------------------------------------------------------------
 rising                                                                       

--------1---------1-----------------------------------------------------------
------3---3-------3-----------------------------------------------------------
----2-------2-----3-----------------------------------------------------------
--0-----------0---3-----------------------------------------------------------
------------------1-----------------------------------------------------------
------------------------------------------------------------------------------
 DOES ANYONE KNOW THE REST?                                                   

Comments