Annihilator - Dont Bother Me Chords & Tabs

 

Dont Bother Me Chords & Tabs

Annihilator Chords & Tabs

Version: 1 Type: Tab 0 ratings
1 star 2 stars 3 stars 4 stars 5 stars
comments

Dont Bother Me Tab

Annihilator: Donīt Bother Me

---------------------------------------------------------------------
---------------------------------------------------------------------
---------------------------------------------------------------------
--------p-----h-h-p-p----------p-------------------------------------
---n---7-5-h-5-7-8-7-5-h------7-5-h-5---n----------------------------
--0--0-----7-----------7-0--0-----7----0-----------------------------
    [m]                    [m]
[ Tab from: http://www.guitartabs.cc/tabs/a/annihilator/dont_bother_me_tab.html ]
---------------------------------------------------------------------
---------------------------------------------------------------------
---------------------------------------------------------------------
-----p-----h-h-p-p----------4-5--------------------------------------
----7-5-h-5-7-8-7-5-h-----------5---6--n------------------------------
--0-----7-----------7--3--3-------3---0------------------------------
 [m]                   [m ]      [m]

                                             s
------------------------------------------(9)-12-11-10-9-------------
----------------------------------------------------------10-9-8-----
------------------------------------9-8-7----------------------------
-----p-----h-h-p-p----------p----------------------------------------
----7-5-h-5-7-8-7-5-h------7-5-h-5-----------------------------------
Comments