Annihilator - Alison Hell Chords & Tabs

 

Alison Hell Chords & Tabs

Annihilator Chords & Tabs

Version: 4 Type: Tab 0 ratings
1 star 2 stars 3 stars 4 stars 5 stars
comments

Alison Hell Tab

   
Artist:Annihilator
Title:Alison Hell
Album:Alice in Hell
Transcribed by:Eric Vanover
Email:evanover3@hotmail.com
Added to Ultimate-Guitar.com By Simon Winter (HeartOfDarkness)

Thought I'd add this because the other Alison Hell tab on UG is incomplete

.-palm mute
hb-half bend
hbr-half bend then release
phb-pre half bend
phbr-pre half bend then release
fb-full bend
fbr-full bend then release
pfb-pre full bend
+-natural harmonic
*-divisi. notation


                x2                   *
E---------------------------------|--15-----------------------------|
B---------------------------------|--16-----------------------------|
G---------------------------------|--17-----------------------------|
D---2--------2--------1--------1--|--2---------2--------2-----------|
A------0--0--------------0--0-----|------0--0-----0--0-----0--0-----|
E---------------------------------|---------------------------------|


                                              *
E---------------------------------------------15--------------------|
B---------------------------------------------16--------------------|
G---------------------------------------------17--------------------|
D---2--------1--------1--------1--------1---------2--------2--------|
A------0--0-----0--0-----0--0-----0--0-----0--0------0--0-----0-----|
E-------------------------------------------------------------------|


                                                    x2
E---------------------------------------------|--------------|------|
B---------------------------------------------|--------------|------|
G---------------------------------------------|-----------8--|------|
D------2--------2--------1--------1--------1--|--7--------8--|------|
A---0-----0--0-----0--0-----0--0-----0--0-----|--7--------6--|------|
E---------------------------------------------|--5-----------|------|

E-------------------------------------------------------------------|
B-------------------------------------------------------------------|
G-------------------------------------------------------------------|
D---------------------2-----------------2-----------------1---------|
A---12\------0--2--3-----3--2--0--2--3-----3--2--0--2--3-----3------|
E-------------------------------------------------------------------|
             .  .  .  .  .  .  .  .  .     .  .  .  .  .     .


E-------------------------------------------------------------------|
B-------------------------------------------------------------------|
G-------------------------------------------------------------------|
D---------------1-----------------2-----------------2---------------|
A---2--0--2--3-----3--2--0--2--3-----3--2--0--2--3-----3--2--0------|
E-------------------------------------------------------------------|
    .  .  .  .     .  .  .  .  .     .  .  .  .  .     .  .  .

                                        Gtr.1
E------------------------------------|------------------------------|
B------------------------------------|-----------5------------------|
G------------------------------------|-----4--5-----5--4-----4------|
D---------1-----------------1--------|--7-----------------7---------|
A---2--3-----3--2--0--2--3-----3--2--|------------------------------|
E------------------------------------|------------------------------|
    .  .     .  .  .  .  .     .  .


E-------------------------------------------------------------------|
B------5-----------------4-----------------4-----------------5------|
G---5-----5--4-----4--5-----5--4-----4--5-----5--4-----4--5---------|
D---------------7-----------------7-----------------7---------------|
A-------------------------------------------------------------------|
E-------------------------------------------------------------------|

E----------------------------------------------/11--11--11--11------|
B------------------5-----------------4--4--4------------------------|
G---5--4-----4--5-----5--4-----4--5---------------------------------|
D---------7-----------------7---------------------------------------|
A-------------------------------------------------------------------|
E-------------------------------------------------------------------|


        Gtr.2
E---\|--------------------------------------------------------------|
B----|------------8------------------8------------------7-----------|
G----|------7--8-----8--7------7--8-----8--7------7--8-----8--7-----|
D----|--10-----------------10-----------------10--------------------|
A----|--------------------------------------------------------------|
E----|--------------------------------------------------------------|

E-------------------------------------------------------------------|
B-------------7------------------8------------------8---------------|
G-------7--8-----8--7------7--8-----8--7------7--8-----8--7---------|
D---10-----------------10-----------------10-----------------10-----|
A-------------------------------------------------------------------|
E-------------------------------------------------------------------|

E-------------------/14--14--14--14\|-------------------------------|
B---------7--7--7-------------------|-----------5-------------------|
G---7--8----------------------------|-----4--5-----5--4-----4--5----|
D-----------------------------------|--7-----------------7----------|
A-----------------------------------|-------------------------------|
E-----------------------------------|-------------------------------|

E-------------------------------------------------------------------|
B---5-----------------4-----------------4-----------------3---------|
G------5--4-----4--5-----5--4-----4--5-----5--4-----2--3-----3------|
D------------7-----------------7-----------------5------------------|
A-------------------------------------------------------------------|
E-------------------------------------------------------------------|


                                                    A.H.
E------------------------------------------------------|------------|
B---------------3-----------------2--2--2--2--2--2--2--|------------|
G---2-----2--3-----3--2-----2--3-----------------------|-----4------|
D------5-----------------5-----------------------------|--7---------|
A------------------------------------------------------|------------|
E------------------------------------------------------|------------|

E-------------------------------------------------------------------|
B------5-----------------5-----------------4-----------------4------|
G---5-----5--4-----4--5-----5--4-----4--5-----5--4-----4--5---------|
D---------------7-----------------7-----------------7---------------|
A-------------------------------------------------------------------|
E-------------------------------------------------------------------|

E-------------------------------------------------------------------|
B------------------3-----------------3-----------------2--2--2------|
G---5--4-----2--3-----3--2-----2--3-----3--2-----2--3---------------|
D---------5-----------------5-----------------5---------------------|
A-------------------------------------------------------------------|
E-------------------------------------------------------------------|


                   x3
E------|-----------------------|-----------------------|------------|
B------|-----------------------|-----------------------|------------|
G---6--|-----------------------|-----------------------|------------|
D---6--|-----------------------|--------------5-----5--|------------|
A---4--|--0--6--5--3-----5--6--|--0--0--0--0--3-----3--|--0--6------|
E------|-----------------------|-----------------------|------------|
                                  .  .  .  .

       x3                                              x3
E------------------|-----------------------|------------------------|
B------------------|-----------------------|------------------------|
G------------------|-----------------------|------------------------|
D------------------|-----------------------|------------------------|
A---5--3-----5--6--|--0--0--0--0--6-----6--|--0--6--5--3-----5------|
E------------------|--------------4-----4--|------------------------|
                      .  .  .  .


E------|-----------------------|------------------------------------|
B------|-----------------------|------------------------------------|
G------|-----------------------|------------------------------------|
D------|--------------5-----5--|------------------------------------|
A---6--|--0--0--0--0--3-----3--|--0--6--5--3-----5--6-----0--6------|
E------|-----------------------|------------------------------------|
          .  .  .  .

                         2 Guitars
E---------------------|-----------------------|---------------------|
B---------------------|-----------------------|---------------------|
G---------------------|-----------------------|---------------------|
D---------------------|--1--5--3--1-----3--5--|---------------------|
A---5--3-----5--6-----|--0--6--5--3-----5--6--|--0--0--0--0--6------|
E---------------------|-----------------------|--------------4------|
                                                 .  .  .  .


E---------|-----------------------------------------|---------------|
B---------|-----------------------------------------|--------6------|
G---------|--------------------------------------7--|-----7---------|
D---------|-----7--------5--------3--------------7--|--0------------|
A------6--|-----------------------------2-----2--5--|---------------|
E------4--|--5--------3--------1--------0-----0-----|---------------|
             .        .        .              .


E---5--8--5-----------------5--3h5p3--------------------------------|
B------------------------3------------6--5p3-----------5--5h6p5-----|
G------------7--------3-----------------------------5---------------|
D---------------0--3-----------------------------5------------------|
A---------------------------------------------3---------------------|
E-------------------------------------------------------------------|

E------------------------------------------5--8--5------------------|
B---------------------8-----------------6-----------6---------------|
G---5--------------6-----6-----------7-----------------------3------|
D------5--------5-----------5-----0--------------------0--3---------|
A------------7-----------------7------------------------------------|
E---------5---------------------------------------------------------|

E------5--3h5p3----------|------------------------------------------|
B---3------------6--5p3--|------------------------------------------|
G------------------------|--------------------------------6--6------|
D------------------------|--------------------------7--7--7--7------|
A------------------------|--0--0--0--0--0--0--0--0--0--0--0--0------|
E------------------------|------------------------------------------|
                            .  .  .  .  .  .  .  .


E-----------------------------------------|-------------------------|
B---------------5-----------------5h8--4--|--5-----------------5----|
G---6--6--6--6--5--------------5-------4--|--5--------------5-------|
D---7--7--7--7--5-----------5----------4--|--5-----------5----------|
A---0--0--0--0--0----------------------0--|--0----------------------|
E-----------------------------------------|-------------------------|

E-------------------|-----------------------------------------------|
B---h8--4-----------|--5--------------5h8--4--------4--4--4--5------|
G-------4-----x--\--|--5-----------5-------4--------4--4--4--5------|
D-------4-----x--\--|--5--------5----------4--------4--4--4--5------|
A-------0-----x--\--|--0-------------------0--------0--0--0--0------|
E-------------------|-----------------------------------------------|

E-----------------------------------|-------------------------------|
B------------------5h8--4-----------|-------------------------------|
G---------------5-------4-----------|-------------------------------|
D------------5----------4-----------|--5----------------------------|
A-----------------------0-----------|--3-----0--0--0--0--0--0--0----|
E--------------------------------12\|-------------------------------|
                                             .  .  .  .  .  .  .


E-------------------------------------------------------------------|
B-------------------------------------------------------------------|
G-------------------------------------------------------------------|
D---------------5--------4------------------------------------------|
A---0--0--0--0--3--0--0--2-----0--0--0--0--0--0--0--0---------------|
E------------------------------------------------------0--2--3------|
    .  .  .  .     .  .        .  .  .  .  .  .


E-------------------------------------------------------------------|
B-------------------------------------------------------------------|
G-------------------------------------------------------------------|
D------------5--------------------------------------5--------4------|
A---0--------3-----0--0--0--0--0--0--0--0--0--0--0--3--0--0--2------|
E------3--2---------------------------------------------------------|
                   .  .  .  .  .  .  .  .  .  .  .     .  .


E------------------------------------------------|------------------|
B------------------------------------------------|------------------|
G------------------------------------------------|------------------|
D------------------------------------------------|--5---------------|
A------0--0--0--0--0--0--0--0-----------0--------|--3-----0--0------|
E------------------------------0--2--3-----3--2--|------------------|
       .  .  .  .  .  .                                   .  .


E-------------------------------------------------------------------|
B-------------------------------------------------------------------|
G-------------------------------------------------------------------|
D---5--------------------------5--------4---------------------------|
A---3-----0--0--0--0--0--0--0--3--0--0--2-----0--0--0--0--0--0------|
E-------------------------------------------------------------------|
          .  .  .  .  .  .  .     .  .        .  .  .  .  .  .


E---------------------------|---------------------------------------|
B---------------------------|---------------------------------------|
G---------------------------|---------------------------------------|
D---------------------------|--------5------------------------------|
A---0--0-----------0--------|--------3-----0--0--0--0--0--0--0------|
E---------0--2--3-----3--2--|---------------------------------------|
                                           .  .  .  .  .  .  .


E------------------------------------------------------------|------|
B------------------------------------------------------------|------|
G------------------------------------------------------------|------|
D---5--------4-----------------------------------------------|------|
A---3--0--0--2-----0--0--0--0--0--0--0--0-----------0--------|------|
E------------------------------------------0--2--3-----3--2--|------|
       .  .        .  .  .  .


E----------------------------------------------------|--------------|
B----------------------------------------------------|--------------|
G----------------------------------------------------|--------------|
D---10--\--9-----------------------------------------|--10--\--9----|
A---8---\--7--------7--\--6--------------------------|--8---\--7----|
E-------------0--0--5--\--4--0--0--0--0--0--0--0--12\|--------------|
              .  .           .  .  .  .  .  .  .

                                        A.H.
E-----------------------------------------------|-------------------|
B-----------------------------------------------|-------------------|
G-----------------------------------------------|-------------------|
D---------------------------------------3-------|--10--\--9---------|
A---------7--\--6-----------7-------------------|--8---\--7---------|
E---0--0--5--\--4--0--0--0--5--0--0--1-----1p0--|------------0------|
    .  .           .  .  .     .  .  .                       .

                                        Gtr.1    fb   fb
E------------------------------------|--------------------|---------|
B------------------------------------|-----------15^--15^\|---------|
G------------------------------------|--------------------|---------|
D------------------------------------|--------------------|---------|
A------7--\--6-----------------------|--------------------|---------|
E---0--5--\--4--0--0--0--0--0--0--0--|--------------------|---------|
    .           .  .  .  .  .  .  .

    Gtr.2    hb   hb
E---------------------|---------------------------------------------|
B------------19^--19^\|---------------------------------------------|
G---------------------|---------------------------------------------|
D---------------------|--10--\--9-----------------------------------|
A---------------------|--8---\--7--------7--\--6-----------6--/-----|
E---------------------|------------0--0--5--\--4--0--0--0--4--/-----|
                                   .  .           .  .  .

[ Tab from: http://www.guitartabs.cc/tabs/a/annihilator/alison_hell_tab_ver_4.html ]
E-------------------|-----------------------------------------------|
B-------------------|-----------------------------------------------|
G-------------------|-----------------------------------------------|
D---------9--/--10--|--10--\--9-------------------------------------|
A---7-----7--/--8---|--8---\--7--------7--\--6----------------------|
E---5---------------|------------0--0--5--\--4--0--0--0--0--0--0----|
                                 .  .           .  .  .  .  .  .


E---------|---------------------------------------------------------|
B---------|---------------------------------------------------------|
G---------|---------------------------------------------------------|
D---------|--10--\--9-----------------------------------------------|
A---------|--8---\--7--------7--\--6-----------3--------3-----3-----|
E---0--12\|------------0--0--5--\--4--0--0--0--1--0--0--1-----1-----|
    .                  .  .           .  .  .     .  .


E---------|------------------------------------------------|--------|
B---------|------------------------------------------------|--------|
G---------|------------------------------------------------|--------|
D---------|--10--\--9--------------------------------------|--------|
A---p--2--|--8---\--7--------7--\--6-----------------------|--------|
E---p--0--|------------0--0--5--\--4--0--0--0--0--0--0--0--|--------|
                       .  .           .  .  .  .  .  .  .

    Gtr.1    fb   fb     Gtr.2    hb   hb
E---------------------|--------------------|------------------------|
B------------15^--15^\|-----------19^--19^\|------------------------|
G---------------------|--------------------|------------------------|
D---------------------|--------------------|--10--\--9--------------|
A---------------------|--------------------|--8---\--7--------7-----|
E---------------------|--------------------|------------0--0--5-----|
                                                        .  .

                                            etc.           x3
E----------------------------------------|-----------|--------------|
B----------------------------------------|-----------|--------------|
G----------------------------------------|-----------|--------------|
D------------------------------9--/--10--|-----------|--7--10--9----|
A---\--6-----------6--/--7-----7--/--8---|-----------|--5--8---7----|
E---\--4--0--0--0--4--/--5---------------|-----------|--------------|
          .  .  .


E------|--------------------------------------------------|---------|
B------|--------------------------------------------------|---------|
G------|--------------------------------------------------|---------|
D---6--|--7-----------------------------7-----------------|--7------|
A---4--|--5-----12\---------------------5--------12\------|--5------|
E------|--5-----------------------------5-----------------|---------|


    x3
E-------------|-----------------------------------|-----------------|
B-------------|-----------------------------------|-----------------|
G-------------|-----------------------------------|-----------------|
D---10--9--6--|-----7--------------------------7--|--10--8--7--8----|
A---8---7--4--|-----5--------12\---------------5--|-----------------|
E-------------|-----5--------------------------5--|-----------------|


                                                         Gtr.1
E-----------------------------------------------------|-------------|
B-----------------------------------------------------|-------------|
G--------------------------------------------------7--|-------------|
D---7------8-----------------------------7--8--10-----|--10--8------|
A------10-----10--8--10--8--7--7--8--10---------------|-------------|
E-----------------------------------------------------|-------------|

E-------------------------------------------------------------------|
B-------------------------------------------------------------------|
G--------------------------------------------------------7----------|
D---7--8--7------8-----------------------------7--8--10-----10------|
A------------10-----10--8--10--8--7--7--8--10-----------------------|
E-------------------------------------------------------------------|


                    Gtr.2
E----------------|--------------------------------------------------|
B----------------|--------------------------------------------------|
G----------------|--10--9--7--9--7------7---------------------------|
D---8--7---------|------------------10-----10--8--10--8--7--7--8----|
A---------10--8--|--------------------------------------------------|
E----------------|--------------------------------------------------|

E-------------------------------------|-----------------------------|
B-------------------------------------|-----------------------------|
G-----------7--9--10--9--7------------|-----------------------------|
D---10--10------------------10--8--7--|--2--------------------------|
A-------------------------------------|--0-----0--0--0--0--0--0-----|
E-------------------------------------|-----------------------------|
                                               .  .  .  .  .  .


E-------------------------------------------------------------------|
B-------------------------------------------------------------------|
G-------------------------------------------------------------------|
D------------9--------------------------------10--------------------|
A---0--0--0--7-----0--0--0--0--0--0--0--0--0--8------0--0--0--0-----|
E-------------------------------------------------------------------|
    .  .  .        .  .  .  .  .  .  .  .  .         .  .  .  .


E------------------------------------|------------------------------|
B------------------------------------|------------------------------|
G------------------------------------|------------------------------|
D------------------5--------5-----5--|--2---------------------------|
A---0--0--0--0--0--2--------3-----2--|--0-----0--0--0--0--0--0------|
E------------------------------------|------------------------------|
    .  .  .  .  .                             .  .  .  .  .  .


E-------------------------------------------------------------------|
B-------------------------------------------------------------------|
G-------------------------------------------------------------------|
D------------9--\--------------------------------10--\--------------|
A---0--0--0--7--\-----0--0--0--0--0--0--0--0--0--8---\-----0--0-----|
E-------------------------------------------------------------------|
    .  .  .           .  .  .  .  .  .  .  .  .            .  .


E-------------------------------------------------------------------|
B-------------------------------------------------------------------|
G-------------------------------------------------------------------|
D------------------------5--------5-----5--/-----11--11--11--11-----|
A---0--0--0--0--0--0--0--2--------3-----2--/-----9---9---9---9------|
E-------------------------------------------------------------------|
    .  .  .  .  .  .  .


E-----------------------------------------------------------|-------|
B-----------------------------------------------------------|-------|
G-----------------------------------------------------------|-------|
D---11--11--11-----11-----11--11--11--11--11--11--11-----9--|-------|
A---9---9---9------9------9---9---9---9---9---9---9------9--|-------|
E--------------------------------------------------------7--|--2----|
                                                               .

    x7
E---------|---------------------------------------------------------|
B---------|---------------------------------------------------------|
G---------|---------------------------------------------------------|
D---------|--4-----11--11--11--11--11--11--11-----11----------------|
A---------|--2-----9---9---9---9---9---9---9------9------9--9--9----|
E---2--2--|---------------------------------------------------------|
    .  .                                                 .  .  .

                               x7
E------------------------|-----------|------------------------------|
B------------------------|-----------|------------------------------|
G------------------------|-----------|--------2---------------------|
D------------------------|-----------|--4-----2--------------4------|
A---9--9--9--9--9--9--9--|-----------|--2-----0--------------4------|
E---------------------7--|--2--2--2--|-----------------------2------|
    .  .  .  .  .  .        .  .  .

                                     etc.        end variation 1
E---------------------------------|-----------|---------------------|
B---------------------------------|-----------|---------------------|
G---------------------------------|-----------|---------------------|
D---------------------------7--\--|-----------|--10--\--9-----------|
A------------4--4--2--4--2--5--\--|-----------|--8---\--7-----------|
E------------2--2--0--2--0--------|-----------|------------0--0-----|
             .  .  .  .  .                                 .  .

                                  A.H.
E-------------------------------------------------------------------|
B-------------------------------------------------------------------|
G-------------------------------------------------------------------|
D---------------------------------3-------10--\--9------------------|
A---7--\--6-----------3-------------------8---\--7--------7--\------|
E---5--\--4--0--0--0--1--0--0--1-----1p0------------0--0--5--\------|
             .  .  .     .  .  .                    .  .

                      Gtr.1    fb       pfb  pfb  pfb    Gtr.2
E------------------|----------------12----------------|-------------|
B------------------|-----------15^------15^--15^--15^\|-------------|
G------------------|----------------------------------|-------------|
D------------------|----------------------------------|-------------|
A---6--------------|----------------------------------|-------------|
E---4--0--0--0--0--|----------------------------------|-------------|
       .  .  .  .

    hb       phb  phb  phb    end variation 2
E--------15----------------|----------------------------------------|
B---19^------19^--19^--19^\|----------------------------------------|
G--------------------------|----------------------------------------|
D--------------------------|--5-------------------------------------|
A--------------------------|--3-----0-----0-----0-----0-----0-------|
E--------------------------|----------------------------------------|
                                    .     .     .     .     .


E-------------------------------------------------------------------|
B-------------------------------------------------------------------|
G-------------------------------------------------------------------|
D---------------------------------------5-----------------4---------|
A---0--0--0-----0--0--0-----0--0--0-----3-----0-----0-----2---------|
E-------------------------------------------------------------------|
    .  .  .     .  .  .     .  .  .           .     .


E-------------------------------------------------------------------|
B-------------------------------------------------------------------|
G-------------------------------------------------------------------|
D-------------------------------------------------------------------|
A---0-----0-----0-----0-----0-----0-----0-----0---------------------|
E---------------------------------------------------0-----2---------|
    .     .     .     .

                                  Gtr.1       phbr
E------------------------------|------------------------------------|
B------------------------------|--------------17^--------15--17-----|
G------------------------------|------------------------------------|
D---------------------------5--|------------------------------------|
A---------0-----------------3--|------------------------------------|
E---3-----------3-----2-----3--|------------------------------------|


                    hbr     Gtr.2       phbr
E------------------------|--------------21^--------13--15--12-------|
B-------15---------------|------------------------------------------|
G---17------16--17--16^--|------------------------------------------|
D------------------------|------------------------------------------|
A------------------------|------------------------------------------|
E------------------------|------------------------------------------|


                fbr     Both Gtrs.
E---13------12-------|--13------13--12------12--10------10--8-------|
B-------15------15^--|------15----------13----------12--------------|
G--------------------|----------------------------------------------|
D--------------------|----------------------------------------------|
A--------------------|----------------------------------------------|
E--------------------|----------------------------------------------|


                             A.H.
E-------8--7--------------------|---------12------------13----------|
B---10-----------8--------------|-----------------------------------|
G----------------------7-----5--|--10/12---------12/14------14------|
D-------------------------------|-----------------------------------|
A-------------------------------|-----------------------------------|
E-------------------------------|-----------------------------------|

E-----------------------12-------------13--------------|--15--------|
B---------------------------10-----------------13--13--|------13----|
G----------------10/12----------12/14------14------14--|------------|
D------10----------------------------------------------|------------|
A------12----------------------------------------------|------------|
E------------------------------------------------------|------------|

E-----------12--13--------------------------------------------------|
B---12------------------12--13--------------------------------------|
G-------14----------------------------------------------------------|
D-------------------15----------14--------12-----10-----9-----------|
A-------------------------------------------------------------7-----|
E-------------------------------------------------------------------|


        fb           fbr  fb
E----|-----------14----------------|---------------------------|----|
B----|-------14------17^--(17)^---\|---------10--9--------9\---|----|
G----|--16^------------------------|---------------------------|----|
D----|-----------------------------|--9--11--------------------|----|
A---\|-----------------------------|---------------------------|----|
E----|-----------------------------|---------------------------|----|
                                      .  .

    hbr      hbr
E-------------------------------------------------------------------|
B---------------------------------------9h10------------------------|
G---13^--11--13^--11----------------11--------11-----(11)---/14-----|
D-------------------------------11----------------------------------|
A------------------------9--12--------------------------------------|
E-------------------------------------------------------------------|
                         .  .   .   .

        fbr             hbr      fb      +   +   +
E-------17^-----14------16^--14-------|------12------21--14---------|
B---14--------------14-----------17^--|--12------------------14-----|
G-------------------------------------|----------16-----------------|
D-------------------------------------|-----------------------------|
A-------------------------------------|-----------------------------|
E-------------------------------------|-----------------------------|


    hb
E---16^-----(16)---\---|--------------------------------------------|
B----------------------|---/10p9------------------------------------|
G----------------------|----------9--8------------9-----------------|
D----------------------|----------------------11-----11--10--9------|
A----------------------|--------------------------------------------|
E----------------------|--------------------------------------------|
                                                     .   .   .

                         A.H.     fb                    fb
E------------------------------|-------------17---------------------|
B------------------------------|--20^------------20p17-------17-----|
G------------------------11\---|------------------------19^---------|
D---8--9--8-----8--------------|------------------------------------|
A------------9-----9--7--------|------------------------------------|
E------------------------------|------------------------------------|
    .  .  .  .  .  .  .

                    fb           fb      fb
E---17--19------17-----------17--20^--|-----------14----------------|
B-----------20-----------17-----------|-------14------17------14----|
G-------------------19^---------------|--16^--------------16--------|
D-------------------------------------|-----------------------------|
A-------------------------------------|-----------------------------|
E-------------------------------------|-----------------------------|


    hbr
E-------------------------------------------------------------------|
B-------------------------------------------------------------------|
G---16^--14------16------14--15----------14-----------------14------|
D------------16------16----------16--14------14--16--14h16----------|
A-------------------------------------------------------------------|
E-------------------------------------------------------------------|

E-------14--|-------------------------------------------------------|
B---14------|-------------------------------------------------------|
G-----------|-------------------------------------------------------|
D-----------|-------------------------------------------------------|
A-----------|-------------------------------------------------------|
E-----------|-------------------------------------------------------|
Comments