Anna Waronker - I Wish You Well Chords & Tabs

 

I Wish You Well Chords & Tabs

Anna Waronker Chords & Tabs

Version: 1 Type: Bass Tab 0 ratings
1 star 2 stars 3 stars 4 stars 5 stars
comments

I Wish You Well Bass Tab

   
Artist: Anna Waronker
Song: I Wish You Well
Album: Anna by Anna Waronker

Intro/fill/outro (Used after first verse and choruses and as outro):

G--------------------------------
D------53------53-----53---------
A--55-----5-5-----5-5----5-------
E--------------------------------

Verse:

G------------------------------------
D------------------------------------
A--55--535---------------------------
E------------3-3-333-3-3-333-5-5-555-

Chorus:
[ Tab from: http://www.guitartabs.cc/tabs/a/anna_waronker/i_wish_you_well_btab.html ]
G-------------------------------------------------
D-------------------------------------------------
A-------------------------------------------------
E-333333335555555533333333000000003333333355555555

Post Chorus/ Bridge part 1 ( If there was a better time...):

G---------------------------------------------
D---------------------------------------------
A------------5-----------------------5--------
E-3----5----------3------3----5------------3--

Faster part ( Dont take me on a ride....):
G------------------------------------
D------------------------------------
A------------------33333333----------
E-3333333355555555----------55555555-
Comments