Anna Waronker - How Do You Sleep Chords & Tabs

 

How Do You Sleep Chords & Tabs

Anna Waronker Chords & Tabs

Version: 1 Type: Tab 0 ratings
1 star 2 stars 3 stars 4 stars 5 stars
comments

How Do You Sleep Tab

   
Song: How Do You Sleep?
Artist: Anna Waronker
Album: Anna by Anna Waronker

Intro/Verses:

E----------------------------------
B----------------------------------
G-------------5555-7777------7777--
D-7-77-77-777-5555-7777-5555-7777--
A-7-77-77-777-3333-5555-5555-5555--
E-5-55-55-555-----------3333-------

Pre Chorus:
                                                    P.M.----------->
E-------------------------------------------------------------------
B-------------------------------------------------------------------
G-77-55-----------77-55------------77-55----------------------------
D-77-55-7-7777777-77-55-5-55556666-77-55-7-777-7777-5555555555555555
A-55-33-7-7777777-55-33-5-55556666-55-33-7-777-7777-5555555555555555
E-------5-5555555 ------3-33334444-------5-555-5555-3333333333333333

Chorus:
[ Tab from: http://www.guitartabs.cc/tabs/a/anna_waronker/how_do_you_sleep_tab.html ]
E-----------------------------------------------------------
B-----------------------------------------------------------
G-------777-777-------777-777-------777-55555555-77777777---
D-55-77-777-777-55-77-777-777-55-77-777-55555555-77777777---
A-55-77-555-555-55-77-555-555-55-77-555-33333333-55555555---
E-33-55---------33-55---------33-55-------------------------

Bridge (Mojulate):

E---------
B---------
G-99-77---
D-99-77-9- ?x
A-77 55-9-
E-------7-

Chorus Twice (Also Mojulated):

E-----------------------------------------------------------
B-----------------------------------------------------------
G-------999-999-------999-999-------999-77777777-99999999---
D-77-99-999-999-77-99-999-999-77-99-999-77777777-99999999---
A-77-99-777-777-77-99-777-777-77-99-777-55555555-77777777---
E-55-77---------55-77---------55-77-------------------------

Anna by Anna Waronker is the first solo album of the former-leader of
tthat dog and apears on four-foot two records. www.annawaronker.com
Comments