Anna Waronker - How Do You Sleep Chords & Tabs

 

How Do You Sleep Chords & Tabs

Anna Waronker Chords & Tabs

Version: 1 Type: Bass Tab 0 ratings
1 star 2 stars 3 stars 4 stars 5 stars
comments

How Do You Sleep Bass Tab

   
Song: How Do You Sleep?
Artist: Anna Waronker
Album: Anna by Anna Waronker

Intro/Verses:
     A         C    D    G    D
G----------------------------------
D----------------------------------
A-------------3333-5555------5555--
E-5-55-55-555-----------3333-------

Pre Chorus:
   D  C    A      D  C    G    G#  D  C   A          G  P.M.-------->
G-------------------------------------------------------------------
D-------------------------------------------------------------------
A-55-33-----------55-33------------55-33----------------------------
E-------5-5555555 ------3-33334444-------5-555-5555-3333333333333333
[ Tab from: http://www.guitartabs.cc/tabs/a/anna_waronker/how_do_you_sleep_btab.html ]
Chorus:
   G  A  D      G  A   D       G A   D   C        D
G-----------------------------------------------------------
D-----------------------------------------------------------
A-------555-555-------555-555-------555-33333333-55555555---
E-33-55---------33-55---------33-55-------------------------

Bridge (Mojulate):
highE D B
G---------
D--------- ?x
A-77 55---
E-------7-

Chorus Twice (Also Mojulated):
  D  B   highE   A B  highE   A  B highE  D        highE
G-----------------------------------------------------------
D-----------------------------------------------------------
A-------777-777-------777-777-------777-55555555-77777777---
E-55-77---------55-77---------55-77-------------------------
Comments