Anna Nalick - Wreck Of The Day Chords & Tabs

 

Wreck Of The Day Chords & Tabs

Anna Nalick Chords & Tabs

Version: 1 Type: Tab 0 ratings
1 star 2 stars 3 stars 4 stars 5 stars
comments

Wreck Of The Day Tab

   
-----------------------------------------------------------------------------
			     Wreck of the Day - Anna Nalick
-----------------------------------------------------------------------------
Tabbed by: Jessy Wilson
Email: sombs999@aol.com

Tuning: Standard


quick tab, I didnt tab out the chords or anything and all of the song.
But this is just something to work with for now, later Ill put the whole
song up. For now this is the intro, verse, and the solo on the steel guitar.
[ Tab from: http://www.guitartabs.cc/tabs/a/anna_nalick/wreck_of_the_day_tab.html ]
 Intro and verse:    
      C                G          E7                                
e|-------------------------------------------------------------------------|
B|-------------------------------------------------------------------------|
G|--------0-----0---------------------0----0----0--4----0--4---------------|
D|------2-----2----------0----0-----1----1----2------2---------------------|
A|---3------3----------2----2-----2----2-----------------------------------|
E|-------------------3----3------------------------------------------------|

The bridge is a little different:
"If this is giving up then I'm givin' up..etc."


Solo:
Slow Wah
e|--12---7--8--8--10--8--3--2-----12--7--8--8--10--8--3--3--5--7-----------|
B|-------------------------------------------------------------------------|
G|-------------------------------------------------------------------------|
D|-------------------------------------------------------------------------|
A|-------------------------------------------------------------------------|
E|-------------------------------------------------------------------------|


Hope its something you can work with and enjoy.
Anna Nalick is a goddess.
Comments