Anna Nalick - Catalyst Chords & Tabs

 

Catalyst Chords & Tabs

Anna Nalick Chords & Tabs

Version: 1 Type: Tab 0 ratings
1 star 2 stars 3 stars 4 stars 5 stars
comments

Catalyst Tab

-------------------------------------------------------------------------------
			     Anna Nalick - Catalyst
-------------------------------------------------------------------------------
Tabbed by: heyray

This tab was done according to the acoustic version of "Catalyst," but applies for both
it and the album version as well. If you haven't downloaded the acoustic version off of
YahooMusic I strongly recommend it. It is pretty straightforward, and if you have the
acoustic version it will be easier to play along with.  The song is absolutely beautiful,
if you haven't heard of Anna Nalick there is a good chance you will soon.  Please send
any comments or suggestions to heyray13@hotmail.com  The tab should be pretty close to
perfect, the only areas that might be iffy are those in the middle of the chorus. 
So, if you think something else sounds better let me know!
Enjoy!


Tuning:Standard

Intro
e|-----3----3----2----2----0----0----2----2--------------------------------|
B|---0----0----0----0----0----0----0----0----------------------------------|
G|-0----0----0----0----0----0----0----0------------------------------------|
D|-------------------------------------------------------------------------|
A|-------------------------------------------------------------------------|
E|-------------------------------------------------------------------------|

Verse 
e|-----3----3----2----2----0----0----2----2--------------------------------|
B|---0----0----0----0----0----0----0----0-----------------0----0-----------|
G|-0----0----0----0----0----0----0----0--------0----0---0----0-------------|
D|-------------------------------------------2----2---1----1---------------|
A|-----------------------------------------3----3--------------------------|
E|-------------------------------------------------------------------------|

e|-----3----3----3----3----3----3----2----2----0----0----2----2------------|
B|---0----0----0----0----0----0----0----0----0----0----0----0--------------|
G|-0----0----0----0----0----0----0----0----0----0----0----0----------------|
D|-------------------------------------------------------------------------|
A|-------------------------------------------------------------------------|
E|-------------------------------------------------------------------------|


e|---------------------------3----3----2----2----0----0----2----2----------|
B|----------------0----0---0----0----0----0----0----0----0----0------------|
G|-----0----0---0----0---0----0----0----0----0----0----0----0--------------|
D|---2----2---1----1-------------------------------------------------------|
A|-3----3------------------------------------------------------------------|
E|-------------------------------------------------------------------------|

Chorus
e|-------------------------------------------------------------------------|
B|-------------------------------------------------------------------------|
G|-----0----0----0----0-------------------------0----0----0----0-----------|
D|---2----2----2----2------0----0----0----0---2----2----2----2-------------|
A|-3----3----2----2------2----2----2----2---3----3----2----2---------------|
E|---------------------3----3----2----2------------------------------------|

e|------------------------------------------------3----3----2----2---------|
B|-------------------------------------0----0---0----0----0----0-----------|
G|--------------------------0----0---0----0---0----0----0----0-------------|
D|-----0----0----0----0---2----2---1----1----------------------------------|
A|---2----2----2----2---3----3---------------------------------------------|
E|-3----3----2----2--------------------------------------------------------|
[ Tab from: http://www.guitartabs.cc/tabs/a/anna_nalick/catalyst_tab.html ]
e|-----0----0----2----2----------------------------------------------------|
B|---0----0----0----0------------------------------------------------------|
G|-0----0----0----0--------------------------------------------------------|
D|-------------------------------------------------------------------------|
A|-------------------------------------------------------------------------|
E|-------------------------------------------------------------------------|

Repeat Verse

Chorus part II (cut short before bridge)
e|-------------------------------------------------------------------------|
B|-------------------------------------------------------------------------|
G|-----0----0----0----0-------------------------0----0----0----0-----------|
D|---2----2----2----2------0----0----0----0---2----2----2----2-------------|
A|-3----3----2----2------2----2----2----2---3----3----2----2---------------|
E|---------------------3----3----2----2------------------------------------|

e|------------------------------------------------3----3----3----3---------|
B|-------------------------------------0----0---0----0----0----0-----------|
G|--------------------------0----0---0----0---0----0----0----0-------------|
D|-----0----0----0----0---2----2---1----1----------------------------------|
A|---2----2----2----2---3----3---------------------------------------------|
E|-3----3----2----2--------------------------------------------------------|

Bridge/Outro
e|-------------------------------------------------------------------------|
B|-------------------------------------------------------------------------|
G|-----0----0----0----0-------------------------0----0----0----0-----------|
D|---2----2----2----2------0----0----0----0---2----2----2----2-------------|
A|-3----3----2----2------2----2----2----2---3----3----2----2---------------|
E|---------------------3----3----2----2------------------------------------|

e|-------------------------------------------------------------------------|
B|-----------------------------------------------0----0----0----0----------|
G|--------------------------0----0----0----0---0----0----0----0------------|
D|-----0----0----0----0---2----2----2----2---1----1----1----1--------------|
A|---2----2----2----2---3----3----2----2-----------------------------------|
E|-3----3----2----2--------------------------------------------------------|

e|---------------------------3----3----2----2----0----0----2----2----------|
B|-------------------------0----0----0----0----0----0----0----0------------|
G|-----0----0----0----0--0----0----0----0----0----0----0----0--------------|
D|---2----2----2----2------------------------------------------------------|
A|-3----3----2----2--------------------------------------------------------|
E|-------------------------------------------------------------------------|

e|-----3----3----2----2----0----0----2----2----3----3----2----2------------|
B|---0----0----0----0----0----0----0----0----0----0----0----0--------------|
G|-0----0----0----0----0----0----0----0----0----0----0----0----------------|
D|-------------------------------------------------------------------------|
A|-------------------------------------------------------------------------|
E|-------------------------------------------------------------------------|

e|-----0----0----2----2-----------------------------3----3-----------------|
B|---0----0----0----0-------------------0----0----0----0-------------------|
G|-0----0----0----0---------0----0----0----0----0----0---------------------|
D|------------------------2----2----1----1---------------------------------|
A|----------------------3----3---------------------------------------------|
E|-------------------------------------------------------------------------|



And that's it!
"These LA lights, they don't shine quite as bright as back in Frisco.  Do you wanna
though, still wanna go?"

Be sure to check out my "Breathe (2am)" tab as well (ver 4). I've seen that song
performed live a couple times and know it is pretty accurate.
Comments