Animals - House Of The Risin' Sun Chords & Tabs

 

House Of The Risin' Sun Chords & Tabs

Animals Chords & Tabs

Version: 1 Type: Tab 5 ratings
1 star 2 stars 3 stars 4 stars 5 stars
comments

House Of The Risin' Sun Tab

   
#----------------------------------PLEASE NOTE---------------------------------#
#This file is the author's own work and represents their interpretation of the #
#song. You may only use this file for private study, scholarship, or research. #
#------------------------------------------------------------------------------##

House Of The Rising Sun
- The Animals

   Am             C              D               F                Am
e----------0--------------0---------------2---------------1---------------0------|
B--------1---1----------1---1-----------3---3-----------1---1-----------1---1----|
G------2-------2------0-------0-------2-------2-------2-------2-------2-------2--|
D----2--------------2------------0--0------------3--3---------------2------------|
A--0--------------3-----------------------------------------------0--------------|
E--------------------------------------------------------------------------------|
[ Tab from: http://www.guitartabs.cc/tabs/a/animals/house_of_the_risin_sun_tab.html ]
   C               E                                  Am              C
|----------0----------------0-----------------0---------------0---------------0------|
|--------1---1------------0---0-------------0---0-----------1---1-----------1---1----|
|------0-------0--------1-------1---------1-------1-------2-------2-------0-------2--|
|----2----------------2-----------------2---------------2---------------2------------|
|--3--------------------------------------------------0---------------3--------------|
|------------------0-----------------0-----------------------------------------------|
 
   D                F                 Am               E                Am
|-----------2----------------1----------------0----------------0----------------0------|
|---------3---3------------1---1------------1---1------------0---0------------1---1----|
|-------2-------2--------2-------2--------2-------2--------1-------1--------2-------2--|
|--0--0-------------3--3----------------2----------------2----------------2------------|
|-------------------------------------0----------------2----------------0--------------|
|--------------------------------------------------------------------------------------|

   E7
|----------0------|
|--------1---1----|
|------0-------0--|
|----0------------|
|--2--------------|
|-----------------| Repeat until the end of the song.
Comments