Ani Difranco - Anticipate Chords & Tabs

 

Anticipate Chords & Tabs

Ani Difranco Chords & Tabs

Version: 1 Type: Bass Tab 0 ratings
1 star 2 stars 3 stars 4 stars 5 stars
comments

Anticipate Bass Tab

Anticipate 

from Living In Clip
by Ani DiFranco 
Standard Tuning

Verses:
[ Tab from: http://www.guitartabs.cc/tabs/a/ani_difranco/anticipate_btab.html ]
G--------------------------------------------
D-------9--7-----------7---------------------
A-------------9-----5-----5----------4---2---
E---7-------------------------5---2----------

Chorus: 

G----------------------------------------------
D----------------------------------------------
A----------------------------------------------
E---3-3---3----5-5---5----0-0---0----0-0---0---


transcribed by Leigh Marble
Comments