Angus And Julia Stone - Just A Boy Chords & Tabs

 

Just A Boy Chords & Tabs

Angus And Julia Stone Chords & Tabs

Version: 1 Type: Bass Tab 0 ratings
1 star 2 stars 3 stars 4 stars 5 stars
comments

Just A Boy Bass Tab

this is my first tab, hope it helps you out. i got this from a cover i saw some guys 
doing on youtube and it
sounds like the original. the channel name is IAMDOCTHOR, they are a great band and i 
would recommend
listening to the song before trying this to kinda hear when things are to be played.

Intro:
you don't play a intro.

Verse:
G----------------------------|
D-----------9----------------|
A-0--12--7-------------3--3--|
E--------------13--13--------|
[ Tab from: http://www.guitartabs.cc/tabs/a/angus_and_julia_stone/just_a_boy_btab.html ]
Chorus:
G----------14--14----------17--17----|
D--17--17----------15--15------------|
A------------------------------------|
E------------------------------------|

Harmonica solo:
i would say play what you did in the Verse because thats what the guitar plays while
the solo is going.

I hope this helped anyone out and i hope it made sense. this was my first tab so please
let me know what you think and what i should improve on. Angus and Julia stone are amazing
and this song is only one of there many great works. please check them out if you haven't
already.
Comments