Angus And Julia Stone - Babylon Chords & Tabs

 

Babylon Chords & Tabs

Angus And Julia Stone Chords & Tabs

Version: 2 Type: Tab 0 ratings
1 star 2 stars 3 stars 4 stars 5 stars
comments

Babylon Tab

   
'Babylon'
by angus & julia stone
from their album Chocolate & Cigarettes

ive never tabbed before, so if its abit wrong thats cos i dont know how to tab, it 
okay when i play it. feel free to suggest corrections.
thats the scheme of it
tabbed by Julius

verses-
play this progression throughout all the verses
(the patter 3h4h5p0-0-h4h5 works the string above as well as further down those strings
the one i have is the one i believe sounds right, but try yourself)


so-oh   rest..
-------------------------------------------------------------------|
-------------------------------------------------------------------|
-------------------------------------------------------------------|
--------3h4h5p0-0-h4h5---------------4-4h5p5-----------------------|
-------------------------------------------------------------------|
-------------------------------------------------------------------|


-------------------------------------------------------------------|
-------------------------------------------------------------------|
-------------------------------------------------------------------|
--------3h4h5p0-0-h4h5---------------4-4h5p5-----------------------|
-------------------------------------------------------------------|
-------------------------------------------------------------------|

[ Tab from: http://www.guitartabs.cc/tabs/a/angus_and_julia_stone/babylon_tab_ver_2.html ]
-------------------------------------------------------------------|
-------------------------------------------------------------------|
-------------------------------------------------------------------|
----------------4------p0---0-0-0----------------------------------|
--------4-4/5p5----5---p0---0-0-0----------------------------------|
-------------------------------------------------------------------|


-------------------------------------------------------------------|
-------------------------------------------------------------------|
-------------------------------------------------------------------|
----------------4------p0---0-0-0----------------------------------|
--------4-4/5p5----5---p0---0-0-0----------------------------------|
-------------------------------------------------------------------|

chorus (obviously use a strum pattern that works)

         G   G      G       G(mj?)        C(somethings?)      D
  no	 i   dont   want     to           be   yay  yay   a  -lone
---------2-----2------2------2------------3----3----3---333---3-----|
-----------------------------2------------1----1----1---111---2-----|
------------------------------------------2----2----2---222---3-----|
--------------------------------------------------------------------|
---------2-----2------2------2------------3----3----3---333---------|
---------3-----3------3------3--------------------------------------|

So-oh rest your head-
you're all mine.
And I stay awake,
I won't go home.
Let's go on holidays.
To burn this town
She's my Baby-lo-on.

So rest your heart-
you're all mine.
Because if you walk away,
I fall on down.
And bleed, red as blood-
Red as wine.
She's my Baby-lo-on.

No I don't want to
see-ay-ay you go.
No I don't want to
be ay-ay-alone.

So rest your hand -
you're all mine.
I can't stay awake,
my eyes fall down.
Said I dreamed a dream
that you walk 'round
She's my Baby-lo-on.

No I don't want to
See-ay-ay you go.
No I don't want to
Be ay-ay-alone
No I don't want to
Be ay-ay-alone.
No I don't want to
Be alone.
Comments