Angra - Carry On Chords & Tabs

 

Carry On Chords & Tabs

Angra Chords & Tabs

Version: 1 Type: Tab 1 rating
1 star 2 stars 3 stars 4 stars 5 stars
comments

Carry On Tab

   
Band : Angra
Song : Carry On

>From Kiko Loureiro and Niuton Filho (E-Mail : niuton@uol.com.br)


Tabs explanation

T : Tapping



Tune Down 1/2 step


Intro (gtr1)

e:---------------------------------------------------------------------------|
B:Pm--(-------)---(-------)---(-------)---(-------)-----------(-------)---(--|
G:-----5--4--5-----5--4--5-----5--4--5-----5--4--5----2--2-----5--4--5-----5-|
D:--7-----------7-----------7-----------7-------------0--0--7-----------7----|
A:---------------------------------------------------------------------------|
E:---------------------------------------------------------------------------|


e:---------------------------------------------------------------------------|
B:-----)---(-------)---(-------)---------5----3---(-------)---(-------)------|
G:-4--5-----5--4--5-----5--4--5----------0----4-------5--4--5-----5--4--5----|
D:-------7-----------7-------------------5----0----7-----------7-----------7-|
A:-------------------------------3--3----3-----------------------------------|
E:---------------------------------------------------------------------------|                                (____)                                



Intro(gtr 2)

e:---------------------------------------------------------------------------|
B:(-------)---(-------)-3--3--|----(-------)---(-------)---(-------)---(-----|
G:-5--4--5-----5--4--5--2--2--|-----9--7--9-----9--7--9-----9--7--9-----9--7-|
D:----------7-----------0--0--|--7-----------7-----------7-----------7-------|
A:----------------------------|----------------------------------------------|
E:---------------------------------------------------------------------------|


e:---------------------------------------------------------------------------|
B:--)---3--3------(-------)---(-------)---(-------)---(-------)---------5---3|
G:-9----2--2-------9--7--9-----9--7--9-----9--7--9-----9--7--9----------0---4|
D:------0--0----7-----------7-----------7-----------7-------------------5---0|
A:----------------------------------------------------------------3--3--3----|
E:---------------------------------------------------------------------------|



Riff 1(gtr 1)

e:---------------------------------------------------------------------------|
B:-----(-------)---(-------)---(-------)---(-------)-3--3--|-----------------|
G
A:------9--7--9-----9--7--9-----9--7--9-----9--7--9--4--4--|--10~--10--12--14|
D:---7-----------7-----------7-----------7-----------0--0--|-----------------|

  

Riff 1(gtr 2)                                 

e:---------------------------------------------------------------------------|
B:---------------12--|---------------------------9--|-Repeat-Intro-|---------|
G:--13~--13--14------|--7~--7--9--10--9~--9--11-----|--------------|--10~--10|
D:-------------------|------------------------------|--------------|---------|
A:-------------------|------------------------------|--------------|---------|
E:---------------------------------------------------------------------------|  

                              T       T                         

e:---------------------------12h17p12p8h12p8----T--------------10h15p10p7h10-|
B:-----------------------12------------------10h13p10----T-------------------|
G:--12--14--13~--13--14--------------------------------9h14p9----------------|
D:---------------------------------------------------------------------------|
A:---------------------------------------------------------------------------|
E:---------------------------------------------------------------------------|


e:---T-----------------------------------------------13--12--10--------------|
B:-8h12p8----T-----------------------------------12--------------13--12--10--|
G:---------7h12p7--10~--10--12--14--13~--13--14------------------------------|
D:---------------------------------------------------------------------------|
A:---------------------------------------------------------------------------|
E:---------------------------------------------------------------------------|
 

e:---------------------------------------------------------------------------|
B:9--10--12--10--------------------------------------------------------|-----|
G:---------------10--9--7----------------------------------------------|--6~-|
D:-------------------------10--9--7--6--7--9--7--6---------------------|-----|
A:--------------------------------------------------8--7--5------------|-----|
E:-----------------------------------------------------------8--7--5~--------|   



(gtr 2)

e:-------------------------(two-hands-same-as-gtr-1)-------------------------|
B:----------------------9----------------------------------------------------|
G:-6--9--10--9~--9--11--------------------------------6~--6--9--10--9~--9--11|
D:---------------------------------------------------------------------------|
A:---------------------------------------------------------------------------|
E:---------------------------------------------------------------------------|


e:-----17--15--13------------------------------------------------------------|
B:--9--------------17--15--13--12--13--15--13--12----------------------------|
G:--------------------------------------------------14--12--10---------------|
D:--------------------------------------------------------------14--12--10--9|
A:---------------------------------------------------------------------------|
E:---------------------------------------------------------------------------| 

                                           Verse 1
e:---------------------------------------------------------------------------|
B:----------------------------------------|----------------------------------|
G:----------------------------------------|----------------------------------|
D:--10--12--10--9-------------------------|--------------------7----5--5--5-(|
A:-----------------12--10--8--------------|--7-(-----)-7-------5----3--3--3--|
E:----------------------------12--10--8~-----5--5-5-5--5-(4x)----------------|


e:---------------------------------------------------------------------------|
B:-----------------------------------------------------------------------2x|-|
G:-------------------------------------------------------------------------|-|
D:----------)--------------------------(-------------------)---7--7--7--7--|-|
A:5--5--5--5-----7-(-----)-7---------3--3-3-3--3-3-3--3-3-3----5--5--5--5--|-|
E:3--3--3--3-----5--5-5-5--5-(4x)----1--1-1-1--1-1-1--1-1-1------------------|


                                                Chorus
e:----------------------------------------------------3----------------------|
B:Repeat-Intro-|-Repeat-All-Riffs-and-verse-1-|-------0----------------------|
G:-------------|------------------------------|-------0----------------------|
D:-------------|------------------------------|--5----0----2-----------(-----|
A:-------------|------------------------------|--3---------0----2----2--3--3-|
E:----------------------------------------------------3---------0----0--1--1-|


e:---------------------------------------------------------------------------|
B:---------------------------------------------------------------------------|
G:-------------------------------------------------------------------4/5-----|
D:-----------------------------------------)-7----5----5--------2---------5--|
A:3-3--3-3-3--3-3-3--2--2-2-2--2-2-2--2-2-2--5----3----2--------0----2/3-----|
E:1-1--1-1-1--1-1-1--0--0-0-0--0-0-0--0-0-0---------------3~--------------3--|


                                   1st solo (gtr 1)

e:---------------------------------------------------------------------------|
B:-------------|-Repeat-Intro-1x-|-------------------------------ah----------|
G:-------------|-----------------|--10~--10--12--14--12~----10~--10~--12--14-|
D:2------------|-----------------|-------------------------------------------|
A:-----3----5--|-----------------|-------------------------------------------|
E:0----1----3----------------------------------------------------------------|


e:---------------------------------------------------------------------------|
B:-ah--10----------11----------11--13------------------------6--------8------|
G:-12------10--10------10--10----------12b(14)rb12--10--12~-----7--7-----7--7|
D:---------------------------------------------------------------------------|
A:---------------------------------------------------------------------------|
E:---------------------------------------------------------------------------|


e:---------------------------------------------------------------------------|
B:--8--8--10--6--8--10--11--8--10--11--10--8---------------------------------|
G:--------------------------------------------10--9--7--6~--10~--12--14--12~-|
D:---------------------------------------------------------------------------|
A:---------------------------------------------------------------------------|
E:---------------------------------------------------------------------------|


e:---------------------------------------------------------------------------|
B:-------------------10--------11-----------11--13---------------------------|
G:--10~--12--14--12~----10--10------10--10----------12b(14)rb12--10--12~--10-|
D:---------------------------------------------------------------------------|
A:---------------------------------------------------------------------------|
E:---------------------------------------------------------------------------|


                                  1st Solo(gtr 2)
e:---------------------------------------------------------------------------|
B:---------------------------13~--|--------------------------------------10--|



e:-12--12b(14)rb12--10--12~-------|--7~--7--9--10--9~--7~--7--9--10--9~------|
D:--------------------------------|------------------------------------------|
A:--------------------------------|------------------------------------------|
E:---------------------------------------------------------------------------|


e:---------------------------------------------------------------------------|
B:--------11----------11--13------------------------6--------8--------8--8--1|
G:10--10------10--10----------12b(14)rb12--10--12~-----7--7-----7--7---------|
D:---------------------------------------------------------------------------|
A:---------------------------------------------------------------------------|
E:---------------------------------------------------------------------------|


                                                     Kiko`s Solo

e:---------------------------------------------------------------------------|
B:0--6--8--11--8--10--11--10--8--------------------|-------------------------|
G:-------------------------------10--9--7--6~-(2x)-|---------------14--16--17|
D:-------------------------------------------------|-----------14------------|
A:-------------------------------------------------|--12~--15----------------|
E:---------------------------------------------------------------------------|


e:--------------17--19--20--19--17--19--17------17---------------------------|
B:--15--17--18------------------------------20------20b(22)~---Sorry,-Kiko-al|
G:---------------------------------------------------------------------------|
D:---------------------------------------------------------------------------|
A:---------------------------------------------------------------------------|
E:---------------------------------------------------------------------------|


e:-------------------------------------------------------------20--19--17--19|
B:ways-improvise-his-solos,-so,-this-is-Angels-Cry`s-version.----------------|
G:---------------------------------------------------------------------------|
D:---------------------------------------------------------------------------|
A:---------------------------------------------------------------------------|
E:---------------------------------------------------------------------------|


e:--17------17---------------------------------------------------------------|
B:------20------20--18--20--18--17--18--17------17---------------------------|
G:------------------------------------------19-------19--17--19--17----------|
D:-------------------------------------------------------------------19--17--|
A:---------------------------------------------------------------------------|
E:---------------------------------------------------------------------------|


e:---------------------------------------------------------------------------|
B:--------------------------------------------------------------17-----------|
G:19b(21)rb19--17--19~--------------17----------------------17------17-------|
D:------------------------------17------17--------------17--------------17---|
A:----------------------17--19--------------19--15--19----------------------1|
E:---------------------------------------------------------------------------|


e:---------------------------------------------------------------------------|
B:-------------------17--------------------------------17--19--20--22b(24)rb2|
G:---------------17------17----------------16--17--19------------------------|
D:-----------17--------------17----------------------------------------------|
A:9--15--19----------------------19--15--------------------------------------|
E:---------------------------------------------------------------------------|



        Rafa`s Solo

e:---------------------------------------------------------------------------|
B:2~--|---------------------------------------------------------------------1|
G:----|---We-aren`t-sure-about-the-first-arpeggios-of-Rafa`s-Solo--19b(21)---|
D:----|----------------------------------------------------------------------|
A:----|----------------------------------------------------------------------|
E:---------------------------------------------------------------------------|


e:--------------------20--19--17--17--19--20--19--17-------------------------|
B:7--20-----------------------------------------------20~--------------------|
G:-------19b(21)rb19----------------------------------------Now,-you`re-going|
D:---------------------------------------------------------------------------|
A:---------------------------------------------------------------------------|
E:---------------------------------------------------------------------------|



                                                            Riffs

e:---------------------------------------------------------------------------|
B:--------------------------------------------------------|------------------|
G:-to-improvise,-cause-we-don`t-know-how-to-do-this-solo--|------------------|
D:--------------------------------------------------------|--7--9---------9--|
A:--------------------------------------------------------|--5--7-(-----)-7--|
E:-----------------------------------------------------------------0-0-0-----|


e:---------------------------------------------------------------------------|
B:-------------------------Riff-A-------|------------------------------------|
G:--------------------------------------|------7--9--10--12--10--9--10--12--R|
D:7---------7--9------------------------|-6----7--9--10--12--10--9--10--12---|
A:5-(-----)-5--7-(-----)-7p5-----5--(2x)|-4----------------------------------|
E:---0-0-0--------0-0-0-------7----------------------------------------------|



e:--------------------4--5--4--2--4--5--5------------------------------------|
B:--------------------5--5--5--5--5--5--5------|-Repeat-Bridge-|-Repeat-Choru|
G:epeat-Riff-A--------4--4--4--4--4--4--4--//--|---------------|-------------|
D:--------------6--7---------------------------|---------------|-------------|
A:--------------4--5---------------------------|---------------|-------------|
E:---------------------------------------------------------------------------|



Chorus 

e:---------------------------------------------------------------------------|
B:s-2---times-|--------------------------------------------------------------|
G:------------|--------------------------------------------------------------|
D:------------|--7-----------------------(-------------------------)--9----7-|
A:------------|--5----7----9----4----4----5-5-5-5-5-5-4-4-4-4-4-4-4---7----5-|
E:--------------------5----7----2----2----3-3-3-3-3-3-2-2-2-2-2-2-2----------|


e:---------------------------------------------------------------------------|
B:---------------------------------------------------------------------------|
G:------------------6/7---------------------------7--6--7-----7--6--7-----7--|
D:---7---------4-----------7----4--------------9-----------9-----------9-----|
A:---4---------2----4/5--------------5----7----------------------------------|
E:--------5----------------5----2----3----5----------------------------------|


e:---------------------------------------------------------------------------|
B:---------------------------------------------------------------------------|
G:6--7---------------------7--6--7-----7--6--7-----7--6--7-----7--6--7-------|
D:----------------------9-----------9-----------9-----------9----------------|
A:------9--7--5----7----------------------------------------------------9--7-|
E:------7--5--3----5----------------------------------------------------7--5-|


Fin
-----------------------














versao 2


CARRY ON
(ANGRA)	
Transcribed and Tabbed by Sergio Fernández Ribnikov

Finally I could tab this excellent song. It has a very big 
arrangemet with a lot of guitars so could have some errors 
but I think that the 95% is O.K.

Any comments? Mail me at Sfernandezr@sion.com.
Enjoy it!

Tablature explanation :
------------------------
        \ / : slide
          h : hammer
          p : pull-off
          b : bend
         br : bend and release
          


INTRO: 
 A5              D5  D5   A5             C5       B5   
             x4                      x4
I--------------I--------I--------------I----------------I
I--------------I--------I--------------I----------------I
I*------------*I--7---7-I*------------*I----------------I
I*-7--10-9-10-*I--7---7-I*-7--10-9-10-*I-----10-------9-I
I--------------I--5---5-I--------------I-----10-------9-I
I--------------I--------I--------------I--8-8-8---7-7-7-I

 A5              D5  D5   D5          E5
             x4
I--------------I--------I-----4-5--4--4---5-7-----------I
I--------------I--------I-6-6-------------7-9-----------IThis part gtr 1. down 
I*------------*I--7---7-I-7-7-9-10-9--9-----------------Inotes gtr2. up notes
I*-7--10-9-10-*I--7---7-I-------------------------------I
I--------------I--5---5-I-------------------------------I
I--------------I--------I-------------------------------I

 A5               D5  D5   A5             C5       B5   
              x4                      x4
I---------------I--------I--------------I----------------I
I------5-3--5---I--------I------5-3--5--I----------------I
I*-5-----------*I--7---7-I*-5----------*I----------------I
I*-7--10-9-10--*I--7---7-I*-7--10-9-10-*I-----10-------9-I
I---------------I--5---5-I--------------I-----10-------9-I
I---------------I--------I--------------I--8-8-8---7-7-7-I
[ Tab from: http://www.guitartabs.cc/tabs/a/angra/carry_on_tab.html ]
 A5              D5  D5   D5          E5
             x4
I--------------I--------I-----4-5--4--4---5-7-----------I
I--------------I--------I-6-6-------------7-9-----------I
I*------------*I--7---7-I-7-7-9-10-9--9-----------------I
I*-7--10-9-10-*I--7---7-I-------------------------------I
I--------------I--5---5-I-------------------------------I
I--------------I--------I-------------------------------I

Both guitars:
I-12-17p12--12------------12--12-I-15-14h15-14---------------------------I
I---------13--13---13-------13---I------------15--15------------15-15-15-I
I----------------14---14---------I--------------16--16-------16----------I
I-----------------------14-------I--------------------17---17------------I
I--------------------------------I-----------------------17--------------I
I--------------------------------I---------------------------------------I


I-----4-5--4--4---5-7-I
I-6-6-------------7-9-I
I-7-7-9-10-9--9-------I
I---------------------I
I---------------------I
I---------------------I

  gtr. 1
I-13-12-10------------------------------------------------------------I
I----------13-12-10-9-10-12-10----------------------------------------I
I------------------------------12-10-9-----------10-9-7---------------I
I--------------------------------------12-10-9-7--------10-9-7-6-7-9-7I
I---------------------------------------------------------------------I
I---------------------------------------------------------------------I
I                                                                     I
I gtr. 2                                                              I
I-17-16-13------------------------------------------------------------I
I---------17-15-13-12-13-15-13-12-------------------------------------I
I---------------------------------14-12------------14-13--------------I
I--------------------------------------15-14-12----------15-14-12-----I
I-----------------------------------------------15----------------15--I
I---------------------------------------------------------------------I


   
                                   With bass solo
I--------------------------------I------------------------------------I
I--------------------------------I------------------------------------I
I--------------------------------I------------------------------------I
I-6---7--9---7-------------------I------------------------------------I
I--------------10--8--7----------I-0-0-0-0-0-0-0-0-0-0-0-0-0-0-0-0-0--I
I-----------------------10-8-7-5-I------------------------------------I
I				                                      I
I				 	                              I 
I                                                                     I 
I--------------------------------I------------------------------------I
I--------------------------------I------------------------------------I
I--------------------------------I------------------------------------I
I-------12-----------------------I------------------------------------I
I-14-15----15-14-12--------------I-0-0-0-0-0-0-0-0-0-0-0-0-0-0-0-0-0--I
I-------------------15-13-12-10-8I------------------------------------I


simple minded...          x2
I----------------------------I----------------------------------------I
I----------------------------I----------------------------------------I
I*--------------------------*I-7---(7)-----7-7--5---------5-----------I
I*-7---------7-7------------*I-7---(7)-----7-7--5---------5--5-5-5-5--I
I--7---------7-7-------------I-5---(5)-----5-5--3-3-3-3-3-3--5-5-5-5--I
I--5-5-5-5-5-5-5-5-5-5-5-5-5-I-------------------------------3-3-3-3--I

                           x2
I----------------------------I----------------------------------------I
I----------------------------I----------------------------------------I
I*--------------------------*I----------------------------------------I
I*-7---------7-7------------*I----------------------------------------I
I--7---------7-7-------------I-3--3-3-3-3-3-3---3-3-3-3-3-3-----------I
I--5-5-5-5-5-5-5-5-5-5-5-5-5-I-1--1-1-1-1-1-1----------------3-3-3-3--I


Pre-chorus:
Follow your steps...
I----------------------------------------------------------------------
I----------------------------------------------------------------------
I-7--(7)-------------------------------------5-------------------------
I-7--(7)--7---5-5---3---------3-3---------3--5--5-5--------------------
I-5--(5)--7---5-5---3---------3-3---------3--3--5-5------3-----3-----3-
I---------5---3-3---1-1-1-1-1-1-1-1-1-1-1-1-----3-3--1-1-1-1-1-1-1-1-1-

--------------------------------------------------I
--------------------------------------------------I
-------2------------------------------------------I
-------2--5-5--3---------3-3---------3--2-2-2-2-2-I
----3--0--5-5--3---------3-3---------3--2-2-2-2-2-I
1-1-1-----3-3--1-1-1-1-1-1-1-1-1-1-1-1--0-0-0-0-0-I


A5               D5  D5   A5             C5       B5   
              x4                           x4
I---------------I-------------I--------------I----------------I
I------5-3--5---I-------------I------5-3--5--I----------------I
I*-5-----------*I-----7-----7-I*-5----------*I----------------I
I*-7--10-9-10--*I-----7-----7-I*-7--10-9-10-*I-----10-------9-I
I---------------I-5-5-5-5-5-5-I--------------I-----10-------9-I
I---------------I-------------I--------------I--8-8-8---7-7-7-I

 A5              D5  D5   D5          E5
             x4
I--------------I--------------I-----4-5--4--4---5-7-----------I
I--------------I--------------I-6-6-------------7-9-----------I 
I*------------*I-----7------7-I-7-7-9-10-9--9-----------------I
I*-7--10-9-10-*I-----7------7-I-------------------------------I
I--------------I-5-5-5--5-5-5-I-------------------------------I
I--------------I--------------I-------------------------------I

Now we have to face...
I----------------------------I----------------------------------------I
I----------------------------I----------------------------------------I
I*--------------------------*I-7---(7)-----7-7--5---------5-----------I
I*-7---------7-7------------*I-7---(7)-----7-7--5---------5--5-5-5-5--I
I--7---------7-7-------------I-5---(5)-----5-5--3-3-3-3-3-3--5-5-5-5--I
I--5-5-5-5-5-5-5-5-5-5-5-5-5-I-------------------------------3-3-3-3--I

                           x2
I----------------------------I----------------------------------------I
I----------------------------I----------------------------------------I
I*--------------------------*I----------------------------------------I
I*-7---------7-7------------*I----------------------------------------I
I--7---------7-7-------------I-3--3-3-3-3-3-3---3-3-3-3-3-3-----------I
I--5-5-5-5-5-5-5-5-5-5-5-5-5-I-1--1-1-1-1-1-1----------------3-3-3-3--I


Pre-chorus:
Follow your steps...
I----------------------------------------------------------------------
I----------------------------------------------------------------------
I-7--(7)-------------------------------------5-------------------------
I-7--(7)--7---5-5---3---------3-3---------3--5--5-5--------------------
I-5--(5)--7---5-5---3---------3-3---------3--3--5-5------3-----3-----3-
I---------5---3-3---1-1-1-1-1-1-1-1-1-1-1-1-----3-3--1-1-1-1-1-1-1-1-1-

--------------------------------------------------I
--------------------------------------------------I
-------2------------------------------------------I
-------2--5-5--3---------3-3---------3--5-5-5-5-5-I
----3--0--5-5--3---------3-3---------3--5-5-5-5-5-I
1-1-1-----3-3--1-1-1-1-1-1-1-1-1-1-1-1--3-3-3-3-3-I

Chorus:
So carry on...
I---------------------------------------------------------------------I
I---------------------------------------------------------------------I
I---------------------------------------------------------------------I
I-5-----2------------------5--5-5-5-5-5-------------------------------I
I-3--5--0-2--3--3-3-3-3-3--3--3-3-3-3-3-------------------------------I
I----3----0--1--1-1-1-1-1---------------3-3-3-3-3-3-3-3-3-3-3-3-3-3---I

I--------------------------------------------------I
I--------------------------------------------------I
I-----------4-5------------------------------------I
I-5-5----2-------------------------5--5-5-5-5-5--5-I
I-3-2----0--2-3-5--2--3--3-3-3-3-3-3--3-3-3-3-3--5-I
I-----3---------3--0--1--1-1-1-1-1---------------3-I


 A5              D5  D5  
             x4
I--------------I--------I
I--------------I--------I
I*------------*I--7---7-I
I*-7--10-9-10-*I--7---7-I
I--------------I--5---5-I
I--------------I--------I


1st solo

gtr.1  
        bend                sl
I-------------------I---------------I---------------------------------I
I-------------------I---------------I-10------11-------11h13-10-------I
I10-10--12b-(14)-12-I-10-10-12/14-12I---10-10----10-10----------10-12-I
I-------------------I---------------I---------------------------------I
I-------------------I---------------I---------------------------------I
I-------------------I---------------I---------------------------------I

I-------------------------I
I-------------------------I
I-10-------12-------12-14-I
I----12-12----12-12-------I
I-------------------------I
I-------------------------I

I----------------------------------------------------I
I-------------11--------11h14p11---------------------I
I-14p10h12h14-----10h12----------14p12p10------------I    Gtr.1:
I-----------------------------------------14p12p11---I Kiko Loureiro  
I----------------------------------------------------I
I----------------------------------------------------I
I                                                    I 
I                                                    I
I-------------10-------10--12p10---------------------I
I-11p10h11h14----11h14-----------14p11p10------------I     Gtr.2:
I--------------------------------------------12p9p8--I Rafael Bittencourt
I----------------------------------------------------I
I----------------------------------------------------I
I----------------------------------------------------I




  gtr.1  
        bend                sl
I-------------------I------------------I---------------------------------I
I-------------------I------------------I-10------11-------11h13-10-------I
I10-10-10-12b-(14)12I-10-10-10-12/14-12I---10-10----10-10----------10-12-I
I-------------------I------------------I---------------------------------I
I-------------------I------------------I---------------------------------I
I-------------------I------------------I---------------------------------I
I                                                                        I
I gtr.2                                                                  I
I       bend                                                             I	
I-------------------I------------------I--8-------10--------12h13--------I
I-------------------I----------13h15-13I----10-10----10-10-------13-11h13I
I-------------------I-14-14-14---------I---------------------------------I
I12-12-12-14b(16)14-I------------------I---------------------------------I
I-------------------I------------------I---------------------------------I
I-------------------I------------------I---------------------------------I

  gtr.1 
I-----------------------------------I
I--------------------------9-10-12--I
I-10---12----12br(14)--10-----------I
I-----------------------------------I
I-----------------------------------I
I-----------------------------------I
I                                   I 
I                                   I
I gtr.2                             I
I-----------------------------8-10--I
I-10-11-10-11-11br(13)--10-12-------I
I-----------------------------------I
I-----------------------------------I
I-----------------------------------I
I-----------------------------------I

2nd solo:
gtr. 1

I-----------------------17-19h20p19p17---19---------I--17-------20-17----
I---------------------17---------------20---20b(22)-I-----20-17-------20-
I-------------------17------------------------------I--------------------
I-----------------19--------------------------------I--------------------
I--10h11h12--15-19----------------------------------I--------------------
I---------------------------------------------------I--------------------

17-------------------------------------------------------I---------------
--20-17---17---------------17-20-17-------17-------------I---------10----	
-------20---20-19-17-19-20----------20-19----20-19-17-19-I-9-10-12----12-
---------------------------------------------------------I---------------
---------------------------------------------------------I---------------
---------------------------------------------------------I---------------

----------------------15----------------------17-------------15----------
----------12-13-10-12----13-12----13-12----13----13-12----13----13-12----
10-9-10-12---------------------14-------14-------------14-------------14-
-------------------------------------------------------------------------
-------------------------------------------------------------------------
-------------------------------------------------------------------------

---------------12-13/17-19-20-22br(24)--I
-13b(15)-12-13--------------------------I
----------------------------------------I
----------------------------------------I
----------------------------------------I
----------------------------------------I

3rd solo
gtr. 2

I-17p13-----17p13-17p13-15p12-------15p12--------I--------12-15-----------
I------15---------------------13----------13-----I-15b(17)-----15br(17)-15
I*-------14----------------------14----------14-*I------------------------
I*----------------------------------------------*I------------------------
I------------------------------------------------I------------------------
I------------------------------------------------I------------------------

--19-20-19h20p19p17---19-20-19----I-20-17-----20-17-----------------------
-------------------------------20-I------18--------18---------------------
----------------------------------I--------19--------19----------------17-
----------------------------------I---------------------19----------19----
----------------------------------I------------------------20-17-20-------
----------------------------------I---------------------------------------

------17---15-17---------------------------------------I
---18---18------18-15----------------13-12-13-12h13p12-I
-19-------------------14----------14-------------------I
-------------------------15-12-15----------------------I
-------------------------------------------------------I
-------------------------------------------------------I

  gtr.1 
I-------------12--14---16-----------I
I------9--12------------------------I
I---9-------------------------------I
I-----------------------------------I
I-----------------------------------I
I-----------------------------------I
I                                   I 
I                                   I
I gtr.2                             I
I-------------16---17---19----------I
I-----12--15------------------------I
I--13-------------------------------I
I-----------------------------------I
I-----------------------------------I
I-----------------------------------I



solo bass and keyboards and then:

I-----------------------------------------------------------------------------
I-----------------------------------------------------------------------------
I*----------------------------------------------------------------------------
I*----------------------------------------------------------------------------
I---------5p3--------7h9---9h10-------12p10---------7p5------------5p3--------
I-0-0-0-0----0-0-0-0----0-0----0-0-0-0------0-0-0-0----7p5-0-0-0-0----0-0-0-0-
                                         x2
--------------------------------------------I---------------------------------I
--------------------------------------------I---------------------------------I
-------------------------8-9-11-13-11-9-8-6*I-5----11-13-14-13-11-13-14---2---I
-------------------7-6---9-9-11-13-11-9-9-6*I-5-12-12-14-14-14-14-14-14---2---I
7h9---9h10-----2---5-4----------------------I-3---------------------------0---I
---0-0-----3-5---5--------------------------I---------------------------------I 




Pre-chorus:
Follow your steps...
I----------------------------------------------------------------------
I----------------------------------------------------------------------
I-7--(7)-------------------------------------5-------------------------
I-7--(7)--7---5-5---3---------3-3---------3--5--5-5--------------------
I-5--(5)--7---5-5---3---------3-3---------3--3--5-5------3-----3-----3-
I---------5---3-3---1-1-1-1-1-1-1-1-1-1-1-1-----3-3--1-1-1-1-1-1-1-1-1-

----------------------------------------------------------I
----------------------------------------------------------I
-------2--------------------------------------------------I
-------2--5-5--3---------3-3---------3--5-5-5-5-5-5-5-5-5-I
----3--0--5-5--3---------3-3---------3--5-5-5-5-5-5-5-5-5-I
1-1-1-----3-3--1-1-1-1-1-1-1-1-1-1-1-1--3-3-3-3-3-3-3-3-3-I

Chorus:
So carry on...
I---------------------------------------------------------------------I
I---------------------------------------------------------------------I
I---------------------------------------------------------------------I
I-5-----2------------------5--5-5-5-5-5-------------------------------I
I-3--5--0-2--3--3-3-3-3-3--3--3-3-3-3-3-------------------------------I
I----3----0--1--1-1-1-1-1---------------3-3-3-3-3-3-3-3-3-3-3-3-3-3---I

I--------------------------------------------------I
I--------------------------------------------------I
I-----------4-5------------------------------------I
I-5-5----2-------------------------5--5-5-5-5-5--5-I
I-3-2----0--2-3-5--2--3--3-3-3-3-3-3--3-3-3-3-3--5-I
I-----3---------3--0--1--1-1-1-1-1---------------3-I

Chorus:
So carry on...
I---------------------------------------------------------------------I
I---------------------------------------------------------------------I
I---------------------------------------------------------------------I
I-7-----4------------------7--7-7-7-7-7-------------------------------I
I-5--7--2-4--5--5-5-5-5-5--5--5-5-5-5-5-------------------------------I
I----5----2--3--3-3-3-3-3---------------5-5-5-5-5-5-5-5-5-5-5-5-5-5-5-I

I--------------------------------------------------I
I--------------------------------------------------I
I-----------6-7------------------------------------I
I-7-7----4-------------------------7--7-7-7-7-7--7-I
I-5-4----2--4-5-7--4--5--5-5-5-5-5-5--5-5-5-5-5--7-I
I-----5---------5--2--3--3-3-3-3-3---------------5-I    

 						       x4     
I----------------------------------------I---------------I-------------
I----------------------------------------I------7-5--7---I-------------
I----------------------------------------I*-7-----------*I-------------
I-7-----4------------------7--7-7-7-7-7--I*-9--12-11-12-*I-------------
I-5--7--2-4--5--5-5-5-5-5--5--5-5-5-5-5--I---------------I-----5-5-5-5-
I----5----2--3--3-3-3-3-3----------------I---------------I-7-5-3-3-3-3-

------------------------I---------------I----------------------------I
------------------------I------7-5--7---I----------------------------I
------------------------I*-7-----------*I----------------------------I
------------------------I*-9--12-11-12-*I----------------------------I
-7---------7-7---------7I---------------I-----5---------5----------5-I
-5-5-5-5-5-5-5-5-5-5-5-5I---------------I-7-5-3-3-3-3-3-3-3-3-3-3--3-I

THAT's ALL! 



Comments