Angelwitch - Suffer Chords & Tabs

 

Suffer Chords & Tabs

Angelwitch Chords & Tabs

Version: 2 Type: Bass Tab 0 ratings
1 star 2 stars 3 stars 4 stars 5 stars
comments

Suffer Bass Tab

             ANGELWITCH
             S U FF E R

Here?s an easy one... Three riffs and easy lyrics...

Intro/Chorus/Outro
---------------------------|
---------------------------|
-0--2-3-2-3-2-3-2----------|
------------------1----3---|
[ Tab from: http://www.guitartabs.cc/tabs/a/angelwitch/suffer_btab_ver_2.html ]
Verse/Solo
------------------------------------------------------|
------------------------------------------------------|
-2--2-2--------------------------3--3-3----------5----|
---------2--2-2--3--3-3--5--5-5----------3--3-3-------|

Bridge
--------------------------------|----------------x3-----------------|
--------------------------------|-----------------------------------|
-3--3-3----------5--5-5--5--5-5-|--3--3-3--7--7-7--5--5-5--5--5-5---|
---------0--0-0-----------------|-----------------------------------|

/metal_up_your_ass@2die4.com
Comments