Angelwitch - Sourecers Chords & Tabs

 

Sourecers Chords & Tabs

Angelwitch Chords & Tabs

Version: 2 Type: Bass Tab 0 ratings
1 star 2 stars 3 stars 4 stars 5 stars
comments

Sourecers Bass Tab

   
                A N G E L W I T C H
                S O U R C E R E R S

Verse
---------------------|
---------------------|
---------------------|
--0-------1----------|

Chorus 1                  End
-------------------|----------------|
-------------------|----------------|
-----2-3-----------|------/7----7\--|
-0--0-----3-2-32---|-0--------------|


Chorus 2             End
-------------------|-----|
-------------------|-----|
-----2-3-----------|-----|
-0--0-----3-2-32---|-0---|
[ Tab from: http://www.guitartabs.cc/tabs/a/angelwitch/sourecers_btab_ver_2.html ]
Pre-Solo
-----------|---7h9p7----7h9p7--------|
-----------|---------9--------9p8p7--|
---5--5h7--|-------------------------|
-7---------|-------------------------|
 x3

Solo
------------------------|
------------------------|
-7-7777--7777---5--5h7--|
--------------7---------|
The bass just kind of
improvise around this
riff, but it sounds
perfect with just this riff.

Ending
--------------|------------|
--------------|------------|
-7----10-10---|-7---7---7--|
--------------|-----0---0--|
                    Yeah
                        Yeah


/metal_up_your_ass@2die4.com
Comments