Angels And Airwaves - The Adventure Chords & Tabs

 

The Adventure Chords & Tabs

Angels And Airwaves Chords & Tabs

Version: 2 Type: Tab 0 ratings
1 star 2 stars 3 stars 4 stars 5 stars
comments

The Adventure Tab

   
|------------------|------------------|-------------------|---------------|
B|------------------|------------------|-------------------|---------------|
G|----11---------11-|----11--------11--|----11----------11-|---11-------11-|
D|-9------9---9-----|-8------8---8-----|-------------------|-8----8---8----|
A|------------------|------------------|-11-----11---11----|---------------|
E|------------------|------------------|-------------------|---------------|

e|------------------|------------------|-------------------|---------------|
B|------------------|------------------|-------------------|---------------|
G|----11---------11-|----11--------11--|----11----------11-|---11-------11-|
D|-9------9---9-----|-8------8---8-----|-------------------|-8----8---8----|
A|------------------|------------------|-11-----11---11----|---------------|
E|------------------|------------------|-------------------|---------------|

e|------------------|------------------|-------------------|---------------|
B|------------------|------------------|-------------------|---------------|
G|----11---------11-|----11--------11--|----11----------11-|---11-------11-|
D|-9------9---9-----|-8------8---8-----|-------------------|-8----8---8----|
A|------------------|------------------|-11-----11---11----|---------------|
E|------------------|------------------|-------------------|---------------|

e|------------------|------------------|-------------------|---------------|
B|------------------|------------------|-------------------|---------------|
G|----11---------11-|----11--------11--|----11----------11-|---11-------11-|
D|-9------9---9-----|-8------8---8-----|-------------------|-8----8---8----|
A|------------------|------------------|-11-----11---11----|---------------|
E|------------------|------------------|-------------------|---------------|

e|------------------|------------------|-------------------|---------------|
B|------------------|------------------|-------------------|---------------|
G|----11---------11-|----11--------11--|----11----------11-|---11-------11-|
D|-9------9---9-----|-8------8---8-----|-------------------|-8----8---8----|
A|------------------|------------------|-11-----11---11----|---------------|
E|------------------|------------------|-------------------|---------------|

e|------------------|------------------|-------------------|---------------|
B|------------------|------------------|-------------------|---------------|
G|----11---------11-|----11--------11--|----11----------11-|---11-------11-|
D|-9------9---9-----|-8------8---8-----|-------------------|-8----8---8----|
A|------------------|------------------|-11-----11---11----|---------------|
E|------------------|------------------|-------------------|---------------|

Pre-verse: With heavy Delay.

e|--------------------|-------------------|-----------------|--------------|
B|--------------------|-------------------|-----------------|--------------|
G|-11-11-11-9-9-9-8-8-|-9-9-9-8-8-8-------|-9-9-9-8-8-8-----|--------------|
D|--------------------|-------------9-9---|-------------9-9-|--------------|
A|--------------------|-------------------|-----------------|-7----6-------|
E|--------------------|-------------------|-----------------|------------7-|

e|--------------------|-------------------|-----------------|--------------|
B|--------------------|-------------------|-----------------|--------------|
G|-11-11-11-9-9-9-8-8-|-9-9-9-8-8-8-------|-9-9-9-8-8-8-----|--------------|
D|--------------------|-------------9-9---|-------------9-9-|--------------|
A|--------------------|-------------------|-----------------|-7----6-------|
E|--------------------|-------------------|-----------------|------------7-|

e|----------------------------|------------------------|
B|----------------------------|------------------------|
G|-11--X--X--11--X--X--11--13-|-9--X--X--9--X--X--9--X-|
D|----------------------------|------------------------|
A|----------------------------|------------------------|
E|----------------------------|------------------------|

e|----------------------------|------------------------|
B|----------------------------|------------------------|
G|-11--X--X--11--X--X--11--13-|-9--X--X--9--X--X--9--X-|
D|----------------------------|------------------------|
A|----------------------------|------------------------|
E|----------------------------|------------------------|

e|--------------------|-------------------|-----------------|--------------|
B|--------------------|-------------------|-----------------|--------------|
G|-11-11-11-9-9-9-8-8-|-9-9-9-8-8-8-------|-9-9-9-8-8-8-----|--------------|
D|--------------------|-------------9-9---|-------------9-9-|--------------|
A|--------------------|-------------------|-----------------|-7----6-------|
E|--------------------|-------------------|-----------------|------------7-|


Verse:

Guitar 1 only strums these chords once each. Listen for timing.
e|-----|-----|-----|-----|
B|-----|-----|-----|-----|
G|-----|--9--|-----|-----|Play whole thing 4 times over.
D|--6--|--9--|--9--|--6--|
A|--6--|--7--|--9--|--x--|
E|--4--|-----|--7--|--4--|

Chorus:

e|------------------|------------------|-------------------|---------------|
B|------------------|------------------|-------------------|---------------|
G|----11---------11-|----11--------11--|----11----------11-|---11-------11-|
D|-9------9---9-----|-8------8---8-----|-------------------|-8----8---8----|
A|------------------|------------------|-11-----11---11----|---------------|
E|------------------|------------------|-------------------|---------------|

e|------------------|------------------|-------------------|---------------|
B|------------------|------------------|-------------------|---------------|
G|----11---------11-|----11--------11--|----11----------11-|---11-------11-|
D|-9------9---9-----|-8------8---8-----|-------------------|-8----8---8----|
A|------------------|------------------|-11-----11---11----|---------------|
E|------------------|------------------|-------------------|---------------|

Post Chorus:
e|--------------------|-------------------|-----------------|--------------|
B|--------------------|-------------------|-----------------|--------------|
G|-11-11-11-9-9-9-8-8-|-9-9-9-8-8-8-------|-9-9-9-8-8-8-----|--------------|
D|--------------------|-------------9-9---|-------------9-9-|--------------|
A|--------------------|-------------------|-----------------|-7----6-------|
E|--------------------|-------------------|-----------------|------------7-|

e|--------------------|-------------------|-----------------|--------------|
B|--------------------|-------------------|-----------------|--------------|
G|-11-11-11-9-9-9-8-8-|-9-9-9-8-8-8-------|-9-9-9-8-8-8-----|--------------|
D|--------------------|-------------9-9---|-------------9-9-|--------------|
A|--------------------|-------------------|-----------------|-7----6-------|
E|--------------------|-------------------|-----------------|------------7-|


Verse:

Guitar 1 only strums these chords once each. Listen for timing.
e|-----|-----|-----|-----|
B|-----|-----|-----|-----|
G|-----|--9--|-----|-----|Play whole thing 4 times over.
D|--6--|--9--|--9--|--6--|
A|--6--|--7--|--9--|--x--|
E|--4--|-----|--7--|--4--|

Chorus:

e|------------------|------------------|-------------------|---------------|
B|------------------|------------------|-------------------|---------------|
G|----11---------11-|----11--------11--|----11----------11-|---11-------11-|
D|-9------9---9-----|-8------8---8-----|-------------------|-8----8---8----|
A|------------------|------------------|-11-----11---11----|---------------|
E|------------------|------------------|-------------------|---------------|

e|------------------|------------------|-------------------|---------------|
B|------------------|------------------|-------------------|---------------|
G|----11---------11-|----11--------11--|----11----------11-|---11-------11-|
D|-9------9---9-----|-8------8---8-----|-------------------|-8----8---8----|
A|------------------|------------------|-11-----11---11----|---------------|
E|------------------|------------------|-------------------|---------------|

e|------------------|------------------|-------------------|---------------|
B|------------------|------------------|-------------------|---------------|
G|----11---------11-|----11--------11--|----11----------11-|---11-------11-|
D|-9------9---9-----|-8------8---8-----|-------------------|-8----8---8----|
A|------------------|------------------|-11-----11---11----|---------------|
E|------------------|------------------|-------------------|---------------|

e|------------------|------------------|-------------------|---------------|
B|------------------|------------------|-------------------|---------------|
G|----11---------11-|----11--------11--|----11----------11-|---11-------11-|
D|-9------9---9-----|-8------8---8-----|-------------------|-8----8---8----|
A|------------------|------------------|-11-----11---11----|---------------|
E|------------------|------------------|-------------------|---------------|

e|------------------|------------------|-------------------|---------------|
B|------------------|------------------|-------------------|---------------|
G|----11---------11-|----11--------11--|----11----------11-|---11-------11-|
D|-9------9---9-----|-8------8---8-----|-------------------|-8----8---8----|
A|------------------|------------------|-11-----11---11----|---------------|
E|------------------|------------------|-------------------|---------------|

e|------------------|------------------|-------------------|---------------|
B|------------------|------------------|-------------------|---------------|
G|----11---------11-|----11--------11--|----11----------11-|---11-------11-|
D|-9------9---9-----|-8------8---8-----|-------------------|-8----8---8----|
A|------------------|------------------|-11-----11---11----|---------------|
E|------------------|------------------|-------------------|---------------|

Bridge:

"I cannot live, I can't breathe.. unless, you do this with me.."
e|------------------|-----------------|-----------------|-----------------|
B|------------------|-----------------|-----------------|-----------------|
G|------------------|-----------------|-----------------|-----------------|
D|--9-9-9-9-9-9-9-9-|-9-9-9-9-9-9-9-9-|-9-9-9-9-9-9-9-9-|-9-9-9-9-9-9-9-9-|
A|--9-9-9-9-9-9-9-9-|-7-7-7-7-7-7-7-7-|-6-6-6-6-6-6-6-6-|-x-x-x-x-x-x-x-x-|
E|------------------|-----------------|-----------------|-9-9-9-9-9-9-9-9-|

e|------------------|-----------------|-----------------|-----------------|
B|------------------|-----------------|-----------------|-----------------|
G|------------------|-----------------|-----------------|-----------------|
D|--9-9-9-9-9-9-9-9-|-9-9-9-9-9-9-9-9-|-9-9-9-9-9-9-9-9-|-9-9-9-9-9-9-9-9-|
A|--9-9-9-9-9-9-9-9-|-7-7-7-7-7-7-7-7-|-6-6-6-6-6-6-6-6-|-x-x-x-x-x-x-x-x-|
E|------------------|-----------------|-----------------|-9-9-9-9-9-9-9-9-|

e|------------------|-----------------|-----------------|-----------------|
B|------------------|-----------------|-----------------|-----------------|
G|------------------|-----------------|-----------------|-----------------|
D|--9-9-9-9-9-9-9-9-|-9-9-9-9-9-9-9-9-|-9-9-9-9-9-9-9-9-|-9-9-9-9-9-9-9-9-|
A|--9-9-9-9-9-9-9-9-|-7-7-7-7-7-7-7-7-|-6-6-6-6-6-6-6-6-|-x-x-x-x-x-x-x-x-|
E|------------------|-----------------|-----------------|-9-9-9-9-9-9-9-9-|

e|------------------|-----------------|-----------------|-----------------|
B|------------------|-----------------|-----------------|-----------------|
G|------------------|-----------------|-----------------|-----------------|
D|--9-9-9-9-9-9-9-9-|-9-9-9-9-9-9-9-9-|-9-9-9-9-9-9-9-9-|-9-9-9-9-9-9-9-9-|
A|--9-9-9-9-9-9-9-9-|-7-7-7-7-7-7-7-7-|-6-6-6-6-6-6-6-6-|-x-x-x-x-x-x-x-x-|
E|------------------|-----------------|-----------------|-9-9-9-9-9-9-9-9-|
[ Tab from: http://www.guitartabs.cc/tabs/a/angels_and_airwaves/the_adventure_tab_ver_2.html ]
e|------------------|-----------------|-----------------|-----------------|
B|------------------|-----------------|-----------------|-----------------|
G|------------------|-----------------|-----------------|-----------------|
D|--9-9-9-9-9-9-9-9-|-9-9-9-9-9-9-9-9-|-9-9-9-9-9-9-9-9-|-9-9-9-9-9-9-9-9-|
A|--9-9-9-9-9-9-9-9-|-7-7-7-7-7-7-7-7-|-6-6-6-6-6-6-6-6-|-x-x-x-x-x-x-x-x-|
E|------------------|-----------------|-----------------|-9-9-9-9-9-9-9-9-|

e|------------------|-----------------|-----------------|-----------------|
B|------------------|-----------------|-----------------|-----------------|
G|------------------|-----------------|-----------------|-----------------|
D|--9-9-9-9-9-9-9-9-|-9-9-9-9-9-9-9-9-|-9-9-9-9-9-9-9-9-|-9-9-9-9-9-9-9-9-|
A|--9-9-9-9-9-9-9-9-|-7-7-7-7-7-7-7-7-|-6-6-6-6-6-6-6-6-|-x-x-x-x-x-x-x-x-|
E|------------------|-----------------|-----------------|-9-9-9-9-9-9-9-9-|

Final Chorus:

e|------------------|---------------|------------------|-------------------|
B|------------------|---------------|------------------|-------------------|
G|------------------|---------------|------------------|-------------------|
D|-9-(9)(9)(9)(9)(9)|-8-(8)(8)(8)(8)|-6-(6)(6)(6)(6)(6)|-8-(8)(8)(8)(8)(8)-|
A|-9-(9)(9)(9)(9)(9)|-9-(9)(9)(9)(9)|-6-(6)(6)(6)(6)(6)|-9-(9)(9)(9)(9)(9)-|
E|-7-(7)(7)(7)(7)(7)|-6-(6)(6)(6)(6)|-4-(4)(4)(4)(4)(4)|-6-(6)(6)(6)(6)(6)-|

e|------------------|---------------|------------------|-------------------|
B|------------------|---------------|------------------|-------------------|
G|------------------|---------------|------------------|-------------------|
D|-9-(9)(9)(9)(9)(9)|-8-(8)(8)(8)(8)|-6-(6)(6)(6)(6)(6)|-8-(8)(8)(8)(8)(8)-|
A|-9-(9)(9)(9)(9)(9)|-9-(9)(9)(9)(9)|-6-(6)(6)(6)(6)(6)|-9-(9)(9)(9)(9)(9)-|
E|-7-(7)(7)(7)(7)(7)|-6-(6)(6)(6)(6)|-4-(4)(4)(4)(4)(4)|-6-(6)(6)(6)(6)(6)-|

e|------------------|---------------|------------------|-------------------|
B|------------------|---------------|------------------|-------------------|
G|------------------|---------------|------------------|-------------------|
D|-9-(9)(9)(9)(9)(9)|-8-(8)(8)(8)(8)|-6-(6)(6)(6)(6)(6)|-8-(8)(8)(8)(8)(8)-|
A|-9-(9)(9)(9)(9)(9)|-9-(9)(9)(9)(9)|-6-(6)(6)(6)(6)(6)|-9-(9)(9)(9)(9)(9)-|
E|-7-(7)(7)(7)(7)(7)|-6-(6)(6)(6)(6)|-4-(4)(4)(4)(4)(4)|-6-(6)(6)(6)(6)(6)-|

e|------------------|---------------|------------------|-------------------|
B|------------------|---------------|------------------|-------------------|
G|------------------|---------------|------------------|-------------------|
D|-9-(9)(9)(9)(9)(9)|-8-(8)(8)(8)(8)|-6-(6)(6)(6)(6)(6)|-8-(8)(8)(8)(8)(8)-|
A|-9-(9)(9)(9)(9)(9)|-9-(9)(9)(9)(9)|-6-(6)(6)(6)(6)(6)|-9-(9)(9)(9)(9)(9)-|
E|-7-(7)(7)(7)(7)(7)|-6-(6)(6)(6)(6)|-4-(4)(4)(4)(4)(4)|-6-(6)(6)(6)(6)(6)-|

End On:

E|-----|
B|-----|
G|-----|
D|--9--|
A|--9--|
E|--7--|

Outro:

e---------------------------|
B---------------------------|
G---------------------------|
D---------------------------|
A---------------------------|
E---------------------------|

Guitar Two's Parts:

Intro: Fades in, with heavy delay.

|------------------------|----------------------|
|------------------------|----------------------|
|-------8---------9---8--|---------8--------9-8-|
|--9-9-----9-8-8---------|---9--9----9-8-8------| x A lot
|------------------------|----------------------|
|------------------------|----------------------|
PM . . .   . . .  .   .      .  .  . . . .  . .

Pre-Verse:

e|------------------|---------------|------------------|-------------------|
B|------------------|---------------|------------------|-------------------|
G|------------------|-9-(9)(9)(9)(9)|------------------|-------------------|
D|-6-(6)(6)(6)(6)(6)|-9-(9)(9)(9)(9)|-9-(9)(9)(9)(9)(9)|-4-(4)(4)(4)(4)(4)-|
A|-6-(6)(6)(6)(6)(6)|-7-(7)(7)(7)(7)|-9-(9)(9)(9)(9)(9)|-4-(4)(4)(4)(4)(4)-|
E|-4-(4)(4)(4)(4)(4)|---------------|-7-(7)(7)(7)(7)(7)|-2-(2)(2)(2)(2)(2)-|

e|------------------|---------------|------------------|-------------------|
B|------------------|---------------|------------------|-------------------|
G|------------------|-9-(9)(9)(9)(9)|------------------|-------------------|
D|-6-(6)(6)(6)(6)(6)|-9-(9)(9)(9)(9)|-9-(9)(9)(9)(9)(9)|-4-(4)(4)(4)(4)(4)-|
A|-6-(6)(6)(6)(6)(6)|-7-(7)(7)(7)(7)|-9-(9)(9)(9)(9)(9)|-4-(4)(4)(4)(4)(4)-|
E|-4-(4)(4)(4)(4)(4)|---------------|-7-(7)(7)(7)(7)(7)|-2-(2)(2)(2)(2)(2)-|

e|------------------|---------------|------------------|-------------------|
B|------------------|---------------|------------------|-------------------|
G|------------------|-9-(9)(9)(9)(9)|------------------|-------------------|
D|-6-(6)(6)(6)(6)(6)|-9-(9)(9)(9)(9)|-9-(9)(9)(9)(9)(9)|-4-(4)(4)(4)(4)(4)-|
A|-6-(6)(6)(6)(6)(6)|-7-(7)(7)(7)(7)|-9-(9)(9)(9)(9)(9)|-4-(4)(4)(4)(4)(4)-|
E|-4-(4)(4)(4)(4)(4)|---------------|-7-(7)(7)(7)(7)(7)|-2-(2)(2)(2)(2)(2)-|

e|------------------|---------------|------------------|-------------------|
B|------------------|---------------|------------------|-------------------|
G|------------------|-9-(9)(9)(9)(9)|------------------|-------------------|
D|-6-(6)(6)(6)(6)(6)|-9-(9)(9)(9)(9)|-9-(9)(9)(9)(9)(9)|-4-(4)(4)(4)(4)(4)-|
A|-6-(6)(6)(6)(6)(6)|-7-(7)(7)(7)(7)|-9-(9)(9)(9)(9)(9)|-4-(4)(4)(4)(4)(4)-|
E|-4-(4)(4)(4)(4)(4)|---------------|-7-(7)(7)(7)(7)(7)|-2-(2)(2)(2)(2)(2)-|

Verse:

e|------------------|---------------|------------------|-------------------|
B|------------------|---------------|------------------|-------------------|
G|------------------|-9-(9)(9)(9)(9)|------------------|-------------------|
D|-6-(6)(6)(6)(6)(6)|-9-(9)(9)(9)(9)|-9-(9)(9)(9)(9)(9)|-4-(4)(4)(4)(4)(4)-|
A|-6-(6)(6)(6)(6)(6)|-7-(7)(7)(7)(7)|-9-(9)(9)(9)(9)(9)|-4-(4)(4)(4)(4)(4)-|
E|-4-(4)(4)(4)(4)(4)|---------------|-7-(7)(7)(7)(7)(7)|-2-(2)(2)(2)(2)(2)-|

e|------------------|---------------|------------------|-------------------|
B|------------------|---------------|------------------|-------------------|
G|------------------|-9-(9)(9)(9)(9)|------------------|-------------------|
D|-6-(6)(6)(6)(6)(6)|-9-(9)(9)(9)(9)|-9-(9)(9)(9)(9)(9)|-4-(4)(4)(4)(4)(4)-|
A|-6-(6)(6)(6)(6)(6)|-7-(7)(7)(7)(7)|-9-(9)(9)(9)(9)(9)|-4-(4)(4)(4)(4)(4)-|
E|-4-(4)(4)(4)(4)(4)|---------------|-7-(7)(7)(7)(7)(7)|-2-(2)(2)(2)(2)(2)-|

e|------------------|---------------|------------------|-------------------|
B|------------------|---------------|------------------|-------------------|
G|------------------|-9-(9)(9)(9)(9)|------------------|-------------------|
D|-6-(6)(6)(6)(6)(6)|-9-(9)(9)(9)(9)|-9-(9)(9)(9)(9)(9)|-4-(4)(4)(4)(4)(4)-|
A|-6-(6)(6)(6)(6)(6)|-7-(7)(7)(7)(7)|-9-(9)(9)(9)(9)(9)|-4-(4)(4)(4)(4)(4)-|
E|-4-(4)(4)(4)(4)(4)|---------------|-7-(7)(7)(7)(7)(7)|-2-(2)(2)(2)(2)(2)-|

e|------------------|---------------|------------------|-------------------|
B|------------------|---------------|------------------|-------------------|
G|------------------|-9-(9)(9)(9)(9)|------------------|-------------------|
D|-6-(6)(6)(6)(6)(6)|-9-(9)(9)(9)(9)|-9-(9)(9)(9)(9)(9)|-4-(4)(4)(4)(4)(4)-|
A|-6-(6)(6)(6)(6)(6)|-7-(7)(7)(7)(7)|-9-(9)(9)(9)(9)(9)|-4-(4)(4)(4)(4)(4)-|
E|-4-(4)(4)(4)(4)(4)|---------------|-7-(7)(7)(7)(7)(7)|-2-(2)(2)(2)(2)(2)-|

Chorus:

E|--19-----19-|
B|------19----|
G|------------|
D|------------| Play 4 times
A|------------|
E|------------|

Post Chorus:

e|------------------|---------------|------------------|-------------------|
B|------------------|---------------|------------------|-------------------|
G|------------------|-9-(9)(9)(9)(9)|------------------|-------------------|
D|-6-(6)(6)(6)(6)(6)|-9-(9)(9)(9)(9)|-9-(9)(9)(9)(9)(9)|-4-(4)(4)(4)(4)(4)-|
A|-6-(6)(6)(6)(6)(6)|-7-(7)(7)(7)(7)|-9-(9)(9)(9)(9)(9)|-4-(4)(4)(4)(4)(4)-|
E|-4-(4)(4)(4)(4)(4)|---------------|-7-(7)(7)(7)(7)(7)|-2-(2)(2)(2)(2)(2)-|

e|------------------|---------------|------------------|-------------------|
B|------------------|---------------|------------------|-------------------|
G|------------------|-9-(9)(9)(9)(9)|------------------|-------------------|
D|-6-(6)(6)(6)(6)(6)|-9-(9)(9)(9)(9)|-9-(9)(9)(9)(9)(9)|-4-(4)(4)(4)(4)(4)-|
A|-6-(6)(6)(6)(6)(6)|-7-(7)(7)(7)(7)|-9-(9)(9)(9)(9)(9)|-4-(4)(4)(4)(4)(4)-|
E|-4-(4)(4)(4)(4)(4)|---------------|-7-(7)(7)(7)(7)(7)|-2-(2)(2)(2)(2)(2)-|

Verse:

e|------------------|---------------|------------------|-------------------|
B|------------------|---------------|------------------|-------------------|
G|------------------|-9-(9)(9)(9)(9)|------------------|-------------------|
D|-6-(6)(6)(6)(6)(6)|-9-(9)(9)(9)(9)|-9-(9)(9)(9)(9)(9)|-4-(4)(4)(4)(4)(4)-|
A|-6-(6)(6)(6)(6)(6)|-7-(7)(7)(7)(7)|-9-(9)(9)(9)(9)(9)|-4-(4)(4)(4)(4)(4)-|
E|-4-(4)(4)(4)(4)(4)|---------------|-7-(7)(7)(7)(7)(7)|-2-(2)(2)(2)(2)(2)-|

e|------------------|---------------|------------------|-------------------|
B|------------------|---------------|------------------|-------------------|
G|------------------|-9-(9)(9)(9)(9)|------------------|-------------------|
D|-6-(6)(6)(6)(6)(6)|-9-(9)(9)(9)(9)|-9-(9)(9)(9)(9)(9)|-4-(4)(4)(4)(4)(4)-|
A|-6-(6)(6)(6)(6)(6)|-7-(7)(7)(7)(7)|-9-(9)(9)(9)(9)(9)|-4-(4)(4)(4)(4)(4)-|
E|-4-(4)(4)(4)(4)(4)|---------------|-7-(7)(7)(7)(7)(7)|-2-(2)(2)(2)(2)(2)-|

e|------------------|---------------|------------------|-------------------|
B|------------------|---------------|------------------|-------------------|
G|------------------|-9-(9)(9)(9)(9)|------------------|-------------------|
D|-6-(6)(6)(6)(6)(6)|-9-(9)(9)(9)(9)|-9-(9)(9)(9)(9)(9)|-4-(4)(4)(4)(4)(4)-|
A|-6-(6)(6)(6)(6)(6)|-7-(7)(7)(7)(7)|-9-(9)(9)(9)(9)(9)|-4-(4)(4)(4)(4)(4)-|
E|-4-(4)(4)(4)(4)(4)|---------------|-7-(7)(7)(7)(7)(7)|-2-(2)(2)(2)(2)(2)-|

e|------------------|---------------|------------------|-------------------|
B|------------------|---------------|------------------|-------------------|
G|------------------|-9-(9)(9)(9)(9)|------------------|-------------------|
D|-6-(6)(6)(6)(6)(6)|-9-(9)(9)(9)(9)|-9-(9)(9)(9)(9)(9)|-4-(4)(4)(4)(4)(4)-|
A|-6-(6)(6)(6)(6)(6)|-7-(7)(7)(7)(7)|-9-(9)(9)(9)(9)(9)|-4-(4)(4)(4)(4)(4)-|
E|-4-(4)(4)(4)(4)(4)|---------------|-7-(7)(7)(7)(7)(7)|-2-(2)(2)(2)(2)(2)-|

Chorus:

E|--19-----19-|
B|------19----|
G|------------| Play 12 times
D|------------|
A|------------|
E|------------|

Bridge:

E|-------------------------|
B|-------------------------|
G|-------------------------|
D|-------------------------|
A|-------------------------|
E|-------------------------|


Final Chorus:
e|------------------|---------------|------------------|-------------------|
B|------------------|---------------|------------------|-------------------|
G|------------------|---------------|------------------|-------------------|
D|-9-(9)(9)(9)(9)(9)|-8-(8)(8)(8)(8)|-6-(6)(6)(6)(6)(6)|-8-(8)(8)(8)(8)(8)-|
A|-9-(9)(9)(9)(9)(9)|-9-(9)(9)(9)(9)|-6-(6)(6)(6)(6)(6)|-9-(9)(9)(9)(9)(9)-|
E|-7-(7)(7)(7)(7)(7)|-6-(6)(6)(6)(6)|-4-(4)(4)(4)(4)(4)|-6-(6)(6)(6)(6)(6)-|

e|------------------|---------------|------------------|-------------------|
B|------------------|---------------|------------------|-------------------|
G|------------------|---------------|------------------|-------------------|
D|-9-(9)(9)(9)(9)(9)|-8-(8)(8)(8)(8)|-6-(6)(6)(6)(6)(6)|-8-(8)(8)(8)(8)(8)-|
A|-9-(9)(9)(9)(9)(9)|-9-(9)(9)(9)(9)|-6-(6)(6)(6)(6)(6)|-9-(9)(9)(9)(9)(9)-|
E|-7-(7)(7)(7)(7)(7)|-6-(6)(6)(6)(6)|-4-(4)(4)(4)(4)(4)|-6-(6)(6)(6)(6)(6)-|

e|------------------|---------------|------------------|-------------------|
B|------------------|---------------|------------------|-------------------|
G|------------------|---------------|------------------|-------------------|
D|-9-(9)(9)(9)(9)(9)|-8-(8)(8)(8)(8)|-6-(6)(6)(6)(6)(6)|-8-(8)(8)(8)(8)(8)-|
A|-9-(9)(9)(9)(9)(9)|-9-(9)(9)(9)(9)|-6-(6)(6)(6)(6)(6)|-9-(9)(9)(9)(9)(9)-|
E|-7-(7)(7)(7)(7)(7)|-6-(6)(6)(6)(6)|-4-(4)(4)(4)(4)(4)|-6-(6)(6)(6)(6)(6)-|

e|------------------|---------------|------------------|-------------------|
B|------------------|---------------|------------------|-------------------|
G|------------------|---------------|------------------|-------------------|
D|-9-(9)(9)(9)(9)(9)|-8-(8)(8)(8)(8)|-6-(6)(6)(6)(6)(6)|-8-(8)(8)(8)(8)(8)-|
A|-9-(9)(9)(9)(9)(9)|-9-(9)(9)(9)(9)|-6-(6)(6)(6)(6)(6)|-9-(9)(9)(9)(9)(9)-|
E|-7-(7)(7)(7)(7)(7)|-6-(6)(6)(6)(6)|-4-(4)(4)(4)(4)(4)|-6-(6)(6)(6)(6)(6)-|

End On:

E|-----|
B|-----|
G|-----|
D|--9--|
A|--9--|
E|--7--|


Outro:

|------------------------|----------------------|
|------------------------|----------------------|
|-------8---------9---8--|---------8--------9-8-|
|--9-9-----9-8-8---------|---9--9----9-8-8------| x A lot
|------------------------|----------------------|
|------------------------|----------------------|
PM . . .   . . .  .   .      .  .  . . . .  . .

| /  slide up
| \  slide down
| h  hammer-on
| p  pull-off
| ~  vibrato
| +  harmonic
| x  Mute note
Comments