Angels And Airwaves - It Hurts Chords & Tabs

 

It Hurts Chords & Tabs

Angels And Airwaves Chords & Tabs

Version: 1 Type: Tab

It Hurts Tab

   
Ok this is my first tab so if it sucks, sorry. But I'm pretty sure its right.

e ---------------------------------------------------|
B ---------------------------------------------------|
G -4-4-444444-444-4-444444-444-4-444444-444-4-444444-|
D -4-4-444444-444-4-444444-444-4-444444-444-4-444444-|
A -2-2-222222-222-2-222222-222-2-222222-222-2-222222-|
E ---------------------------------------------------|

e ---------------------------------------------------|
B ---------------------------------------------------|
G -4-4-444444-443-3-333333-33------------------------|
D -4-4-444444-443-3-333333-336-6-666666-664-4-444444-|
A -2-2-222222-221-1-111111-116-6-666666-664-4-444444-|
E ---------------------------4-4-444444-442-2-222222-|
[ Tab from: http://www.guitartabs.cc/tabs/a/angels_and_airwaves/it_hurts_tab.html ]
e ---------------------------------------------------|
B ---------------------------------------------------|
G -4-4-444444-443-3-333333-33------------------------|
D -4-4-444444-443-3-333333-336-6-666666-664-4-444444-|
A -2-2-222222-221-1-111111-116-6-666666-664-4-444444-|
E ---------------------------4-4-444444-442-2-222222-|

e -----------------|-----------------|-----------------|-----------------|
B -----------------|-----------------|-----------------|-----------------|
G -8-----9-6-------|-8-----9-6-------|-8-----9-6-------|-4---------------|
D -----------------|-----------------|-----------------|-----------------|
A -----------------|-----------------|-----------------|-----------------|
E -----------------|-----------------|-----------------|-----------------|
   1&2&3&4&1&2&3&4&  1&2&3&4&1&2&3&4&  1&2&3&4&1&2&3&4&  1&2&3&4&1&2&3&4&


That's the intro. I haven't figured out the whole song yet, but I'll put it on here when I do. Enjoy.