Angels And Airwaves - Adventure Chords & Tabs

 

Adventure Chords & Tabs

Angels And Airwaves Chords & Tabs

Version: 4 Type: Bass Tab

Adventure Bass Tab

   
"The Adventure"
Angels And Airwaves

Tuning - E,D,A,G (Standard)

* = mute

Intro
(1:05)
  1 2 3 4 1 2 3 4 1 2 3 4 1 2 3 4 1 2 3 4 1 2 3 4 1 2 3 4 1 2 3 4
G|----------------------------------------------------------------|
D|----------------------------------------------------------------|
A|----------------------------------------------------------------|
E|9999999977777777666666664444444499999999777777776666666644444444

                                  (1:25)
  1 2 3 4 1 2 3 4 1 2 3 4 1 2 3 4 1 2 3 4 1 2 3 4 1 2 3 4 1 2 3 4
G|-----------------------------------------------------------------|
D|-----------------------------------------------------------------|
A|----------------22222222-----------------------------------------|
E|44444444OOOOOOOO--------2222222299999999777777776666666644444444-|

Verse
(1:31)
  1 2 3 4 1 2 3 4 1 2 3 4 1 2 3 4 1 2 3 4 1 2 3 4 1 2 3 4 1 2 3 4
G|-----------------------------------------------------------------|
D|-----------------------------------------------------------------|
A|----------------2-2-2222------------------------2-2-2222---------|
E|4-4-4444O-O-OOOO--------2-2-22224-4-4444O-O-OOOO--------2-2-2222-|
  * *     * *     * *     * *     * *     * *     * *     * *

  1 2 3 4 1 2 3 4 1 2 3 4 1 2 3 4 1 2 3 4 1 2 3 4 1 2 3 4 1 2 3 4
G|-----------------------------------------------------------------|
D|-----------------------------------------------------------------|
A|----------------2-2-2222------------------------2-2-2222---------|
E|4-4-4444O-O-OOOO--------2-2-22224-4-4444O-O-OOOO--------2-2-2222-|
  * *     * *     * *     * *     * *     * *     * *     * *
Post-Verse
(1:58)
  1 2 3 4 1 2 3 4 1 2 3 4 1 2 3 4 1 2 3 4 1 2 3 4 1 2 3 4 1 2 3 4
G|----------------------------------------------------------------|
D|----------------------------------------------------------------|
A|2~--------------2~--------------2~--------------2~--------------|
E|----------------------------------------------------------------|

Interlude
(2:11)
  1 2 3 4 1 2 3 4 1 2 3 4 1 2 3 4 1 2 3 4 1 2 3 4 1 2 3 4 1 2 3 4
G|----------------------------------------------------------------|
D|----------------------------------------------------------------|
A|----------------------------------------------------------------|
E|9999999977777777666666664444444499999999777777776666666644444444

Verse
(2:25)
  1 2 3 4 1 2 3 4 1 2 3 4 1 2 3 4 1 2 3 4 1 2 3 4 1 2 3 4 1 2 3 4
G|-----------------------------------------------------------------|
D|-----------------------------------------------------------------|
A|----------------2-2-2222------------------------2-2-2222---------|
E|4-4-4444O-O-OOOO--------2-2-22224-4-4444O-O-OOOO--------2-2-2222-|
  * *     * *     * *     * *     * *     * *     * *     * *

[ Tab from: http://www.guitartabs.cc/tabs/a/angels_and_airwaves/adventure_btab_ver_4.html ]
  1 2 3 4 1 2 3 4 1 2 3 4 1 2 3 4 1 2 3 4 1 2 3 4 1 2 3 4 1 2 3 4
G|-----------------------------------------------------------------|
D|-----------------------------------------------------------------|
A|----------------2-2-2222------------------------2-2-2222---------|
E|4-4-4444O-O-OOOO--------2-2-22224-4-4444O-O-OOOO--------2-2-2222-|
  * *     * *     * *     * *     * *     * *     * *     * *
Post-Verse
(2:51)
  1 2 3 4 1 2 3 4 1 2 3 4 1 2 3 4 1 2 3 4 1 2 3 4 1 2 3 4 1 2 3 4
G|----------------------------------------------------------------|
D|----------------------------------------------------------------|
A|2~--------------2~--------------2~--------------2~--------------|
E|----------------------------------------------------------------|


  1 2 3 4 1 2 3 4 1 2 3 4 1 2 3 4 1 2 3 4 1 2 3 4 1 2 3 4 1 2 3 4
G|----------------------------------------------------------------|
D|----------------------------------------------------------------|
A|2~--------------2~--------------2~--------------2~--------------|
E|----------------------------------------------------------------|


  1 2 3 4 1 2 3 4 1 2 3 4 1 2 3 4 1 2 3 4 1 2 3 4 1 2 3 4 1 2 3 4
G|----------------------------------------------------------------|
D|----------------------------------------------------------------|
A|2~--------------2~--------------2~--------------2~--------------|
E|----------------------------------------------------------------|


  1 2 3 4 1 2 3 4 1 2 3 4 1 2 3 4 1 2 3 4 1 2 3 4 1 2 3 4 1 2 3 4
G|----------------------------------------------------------------|
D|----------------------------------------------------------------|
A|2~--------------2~--------------2~--------------2~--------------|
E|----------------------------------------------------------------|

Interlude #2
(3:31)
  1 2 3 4 1 2 3 4 1 2 3 4 1 2 3 4 1 2 3 4 1 2 3 4 1 2 3 4 1 2 3 4
G|-----------------------------------------------------------------|
D|-----------------------------------------------------------------|
A|----------------22222222------------------------22222222---------|
E|44444444OOOOOOOO--------22222222444444444OOOOOOO--------22222222-|


  1 2 3 4 1 2 3 4 1 2 3 4 1 2 3 4 1 2 3 4 1 2 3 4 1 2 3 4 1 2 3 4
G|-----------------------------------------------------------------|
D|-----------------------------------------------------------------|
A|----------------22222222------------------------22222222---------|
E|44444444OOOOOOOO--------22222222444444444OOOOOOO--------22222222-|


  1 2 3 4 1 2 3 4 1 2 3 4 1 2 3 4 1 2 3 4 1 2 3 4 1 2 3 4 1 2 3 4
G|-----------------------------------------------------------------|
D|-----------------------------------------------------------------|
A|----------------22222222------------------------22222222---------|
E|44444444OOOOOOOO--------22222222444444444OOOOOOO--------22222222-|

Verse
(4:11)
  1 2 3 4 1 2 3 4 1 2 3 4 1 2 3 4 1 2 3 4 1 2 3 4 1 2 3 4 1 2 3 4
G|-----------------------------------------------------------------|
D|-----------------------------------------------------------------|
A|----------------2-2-2222------------------------2-2-2222---------|
E|4-4-4444O-O-OOOO--------2-2-22224-4-4444O-O-OOOO--------2-2-2222-|
  * *     * *     * *     * *     * *     * *     * *     * *

  1 2 3 4 1 2 3 4 1 2 3 4 1 2 3 4 1 2 3 4 1 2 3 4 1 2 3 4 1 2 3 4
G|-----------------------------------------------------------------|
D|-----------------------------------------------------------------|
A|----------------2-2-2222------------------------2-2-2222---------|
E|4-4-4444O-O-OOOO--------2-2-22224-4-4444O-O-OOOO--------2-2-2222-|
  * *     * *     * *     * *     * *     * *     * *     * *
Outro
(4:38)
  1 2 3 4 1 2 3 4 1 2 3 4 1 2 3 4 1 2 3 4 1 2 3 4 1 2 3 4 1 2 3 4
G|----------------------------------------------------------------|
D|----------------------------------------------------------------|
A|2~--------------------------------------------------------------|
E|----------------------------------------------------------------|