Angels And Airwaves - Adventure Chords & Tabs

 

Adventure Chords & Tabs

Angels And Airwaves Chords & Tabs

Version: 1 Type: Bass Tab

Adventure Bass Tab

                               THE ADVENTURE 
                       As recorded by Angels And Airwaves

Words and Music by Angels And Airwaves
Transcribed by Aaron Hetherington

This is AAA's first release......Plus this is the first tab on the net for it.



 Intro
  Moderate Q=130
 4/4
  Gtr I
|-----|
|-----|
|-----|
|-----|


   Pre-Verse
    Faster Q=160
                                                                        2x
||-----------------|----------------|----------------|------------------||
||o----------------|----------------|----------------|-----------------o||
||o----------------|----------------|-2--2-2-2-2-2-2-|-----------------o||
||--4--4-4-4-4-4-4-|-0--0-0-0-0-0-0-|----------------|-2--2-2-2-2-2-2---||

|-----------------|----------------|----------------|------------------|
|-----------------|----------------|----------------|------------------|
|-----------------|----------------|-2--2-2-2-2-4\--|-1-1-1-1-1-1-1-1--|
|--4--4-4-4-4-4-4-|-0--0-0-0-0-0-0-|----------------|------------------|

|-----------------|----------------|----------------|-------------------|
|-----------------|----------------|----------------|-------------------|
|-----------------|----------------|-2--2-2-2-2-2-2-|-------------------|
|--4--4-4-4-4-4-4-|-0--0-0-0-0-0-0-|----------------|-2--2-2-2-2-2-2----|




 Verse
|----------|----------|----------|-----------------|
|----------|----------|----------|-----------------|
|----------|----------|-2--------|-4-4-4-4-4-4-4-4-|
|-4--------|-0--------|----------|-----------------|


|----------|----------|---------|------|
|----------|----------|---------|------|
|----------|----------|-2-------|------|
|-4--------|-0--------|---------|-2----|


|----------|----------|---------|-------|
|----------|----------|---------|-------|
|----------|----------|-2-----4S|==1----|
|-4--------|-0--------|---------|-------|


|----------|----------|----------|------|
|----------|----------|----------|------|
|----------|----------|-2--------|------|
|-4--------|-0--------|----------|-2----|

[ Tab from: http://www.guitartabs.cc/tabs/a/angels_and_airwaves/adventure_btab.html ]
 Chorus
  Slower Q=130
|----------|------------|------------|--------|
|----------|------------|------------|--------|
|-2--------|-(2)--------|-(2)--------|-(2)----|
|----------|------------|------------|--------|


|-----|
|-----|
|-----|
|-----|


   Pre-Verse
||-----------------|----------------|----------------|----------------||
||o----------------|----------------|----------------|---------------o||
||o----------------|----------------|-2--2-2-2-2-2-2-|---------------o||
||--4--4-4-4-4-4-4-|-0--0-0-0-0-0-0-|----------------|-2--2-2-2-2-2-2-||


 Verse 2
|----------|----------|----------|-----------------|
|----------|----------|----------|-----------------|
|----------|----------|-2--------|-4-4-4-4-4-4-4-4-|
|-4--------|-0--------|----------|-----------------|


|----------|----------|---------|------|
|----------|----------|---------|------|
|----------|----------|-2-------|------|
|-4--------|-0--------|---------|-2----|


|----------|----------|---------|-------|
|----------|----------|---------|-------|
|----------|----------|-2-----4S|==1----|
|-4--------|-0--------|---------|-------|


|----------|----------|----------|------|
|----------|----------|----------|------|
|----------|----------|-2--------|------|
|-4--------|-0--------|----------|-2----|


 Chorus
  Slower Q=130
|----------|------------|------------|--------|
|----------|------------|------------|--------|
|-2--------|-(2)--------|-(2)--------|-(2)----|
|----------|------------|------------|--------|


|-----|
|-----|
|-----|
|-----|


||-----------|----------|----------|-------||
||o----------|----------|----------|------o||
||o-2--------|-4--------|-6--------|-4----o||
||-----------|----------|----------|-------||


   Interlude
                                             4x
||------------|----------|----------|--------||
||o-----------|----------|----------|-------o||
||o--2--------|-4--------|-6--------|--4----o||
||------------|----------|----------|--------||



   Outro
||--------------|-------------|-------------|-------------||
||o-------------|-------------|-------------|------------o||
||o-2--2--2--2--|-1--1--1--1--|-------------|------------o||
||--------------|-------------|-4--4--4--4--|-2--2--2--2--||


|-----------|-------------|-------------|---------|
|-----------|-------------|-------------|---------|
|--2--------|--(2)--------|--(2)--------|--(2)----|
|-----------|-------------|-------------|---------|


Thanks