Angels And Airwaves - A Littles Enough Chords & Tabs

 

A Littles Enough Chords & Tabs

Angels And Airwaves Chords & Tabs

Version: 1 Type: Bass Tab

A Littles Enough Bass Tab

   
-------------------------------------------------------------------------------
			     A Little's Enough - Angels & Airwaves
-------------------------------------------------------------------------------

Tabbed By:DjX
e-mail:DjX7799@yahoo.com

The is a tab from Tom Delonge's new band Angels and Airwaves. Theyre an amazing group 
all of their songs are musical
masterpieces!!! Im pretty sure these all are 100% accurate but if you are to find any 
please email them to me.
(Comments good or bad are greatly appreciated!!!) Thanks and Enjoy!!! P.S Im going to 
the whole album on bass!!!

Tuning:Standard

Intro
G|---------------------------------------------------------------------------|
D|---------------------------------------------------------------------------|
A|-----------------(x2)------------------------------------------------------|
E|-2~--5~--0~--5~------------------------------------------------------------|

Verse-0:28 "When all is said and done..."
G|---------------------------------------------------------------------------|
D|---------------------------------------------------------------------------|
A|-----------------(x2)------------------------------------------------------|
E|-2~--5~--0~--5~------------------------------------------------------------|

Prechorus-0:56 "To say i..."
G|---------------------------------------------------------------------------|
D|---------------------------------------------------------------------------|
A|-------------------------------------------------------444444444444--------|
E|--222222222222--000000000000--222222222222-00000000000---------------------|

G|---------------------------------------------------------------------------|
D|---------------------------------------------------------------------------|
A|222222222222 444444444444 22222222222--------------------------------------|
E|---------------------------------------------------------------------------|

Chorus-1:24
G|---------------------------------------------------------------------------|
D|---------------------------------------------------------------------------|
A|--0~-----------------------------------------------------------------------|
E|---------------------------------------------------------------------------|
[ Tab from: http://www.guitartabs.cc/tabs/a/angels_and_airwaves/a_littles_enough_btab.html ]
Verse 2-1:38 "Green trees were the first sign..."
G|---------------------------------------------------------------------------|
D|---------------------------------------------------------------------------|
A|---------------------------------------------------------------------------|
E|--222222222222--555555555555--000000000000--55555555555--------------------|

Prechorus-2:05 "To say i..." (straight eighth note pattern)
G|---------------------------------------------------------------------------|
D|---------------------------------------------------------------------------|
A|-------------------------------------------------------444444444444--------|
E|--222222222222--000000000000--222222222222-00000000000---------------------|

G|---------------------------------------------------------------------------|
D|---------------------------------------------------------------------------|
A|222222222222 444444444444 22222222222--------------------------------------|
E|---------------------------------------------------------------------------|

Chorus-2:33 So you can hear im..." (Let all notes ring out!)
G|---------------------------------------------------------------------------|
D|---------------------------------------------------------------------------|
A|---------------------------------------------------------------------------|
E|--5--5--5-4--4--4-2--2--2-0--0--0-5----------------------------------------|

Bridge-3:01 "A little's enough..." (Let all notes ring out!)
G|---------------------------------------------------------------------------|
D|---------------------------------------------------------------------------|
A|----2--4--2--4--5--4--2----------------------------------------------------|
E|-5-------------------------------------------------------------------------|

Chorus/Outro-3:29 "Im sorry..."
G|------------------------------------------------------------------------------|
D|------------------------------------------------------------------------------|
A|----------------------------------------------------------------55555555(x4---|
E|--5555555555555555--4444444444444444--2222222222222222--00000000--------------|

End On (Let it ring freely...)
G|---------------------------------------------------------------------------|
D|---------------------------------------------------------------------------|
A|--0~-----------------------------------------------------------------------|
E|---------------------------------------------------------------------------|

| /  slide up
|   slide down
| h  hammer-on
| p  pull-off
| ~  vibrato
| +  harmonic
| x  Mute note
===============================================================================