Angelic Upstarts - Whos Got The Money Chords & Tabs

 

Whos Got The Money Chords & Tabs

Angelic Upstarts Chords & Tabs

Version: 1 Type: Tab 0 ratings
1 star 2 stars 3 stars 4 stars 5 stars
comments

Whos Got The Money Tab

Band: Angelic Upstarts
Song: Who's Got the Money


tabbed by jam9383@yahoo.com


Intro
P.M.-------------------------------------------------------------------|
e----------------------------------------------------------------------|
B----------------------------------------------------------------------|
G----------------------------------------------------------------------|
D----------------------------------------------------------------------|
A---------------5-5-5-4-4-4--------------------------------------------|
E--5-5-5-7-7-5--------------7-7-5-5-5-5-5-5-5-5------------------------|

Chorus

e------------10-9-----------------------------------------------------|
B---10-12-10-------12-10--10-10-10-10---------------------------------|
G---------------------------------------------------------------------|
D---------------------------------------------------------------------|
A---------------------------------------------------------------------|
E---------------------------------------------------------------------|

e---------------------------------------------------------------------|
B---------------------------------------------------------------------|
G--------------------------7--6---------------------------------------|
D--7--7--7--7--7--7--9--7--7--6--9--7---------------------------------|
A--7--7--7--7--7--7--9--7--5--4--9--7---------------------------------|
E--5--5--5--5--5--5--7--5--------7--5---------------------------------|

Verse
[ Tab from: http://www.guitartabs.cc/tabs/a/angelic_upstarts/whos_got_the_money_tab.html ]
e---5-x-5-x-5-x-5--5-x-5-x-5-x-5--------------------------------------|
B---5-x-5-x-5-x-5--7-x-7-x-7-x-7--------------------------------------|
G---6-x-6-x-6-x-6--7-x-7-x-7-x-7--------------------------------------|
D---7-x-7-x-7-x-7--7-x-7-x-7-x-7--------------------------------------|
A---------------------------------------------------------------------|
E---------------------------------------------------------------------|

Pre-Chorus

e--------------------13--15\------------------------------------------|
B----13b--13b---13b---------------------------------------------------|
G---------------------------------------------------------------------|
D---------------------------------------------------------------------|
A---------------------------------------------------------------------|
E---------------------------------------------------------------------|

e---------------------------------------------------------------------|
B---------------------------------------------------------------------|
G-----------7-7-7-----------------------------------------------------|
D---7-7-7-7-7-7-7--7--------------------------------------------------|
A---7-7-7-7-5-5-5--7--------------------------------------------------|
E---5-5-5-5--------5--------------------------------------------------|

Bridge

P.M.-------------------------------------------------------------------|
e----------------------------------------------------------------------|
B----------------------------------------------------------------------|
G----------------------------------------------------------------------|
D---7-7-7-6-6-7-9-9-9-7-7-7---7-7-7-7----------------------------------|
A-----------------------------7-7-7-7----------------------------------|
E-----------------------------5-5-5-5----------------------------------|

any comments/corrections contact me , please rate
Comments