Anemic - Blood Loss Chords & Tabs

 

Blood Loss Chords & Tabs

Anemic Chords & Tabs

Version: 1 Type: Tab 0 ratings
1 star 2 stars 3 stars 4 stars 5 stars
comments

Blood Loss Tab

   
ANEMIC,bloood loss.
Tabbed by dread [ Tab from: http://www.guitartabs.cc/tabs/a/anemic/blood_loss_tab.html ]
E2-2-2-3-2-2-2-2-3-2-2-2-2-3-2-2-2-2-0
A2-2-2-3-2-2-2-2-3-2-2-2-2-3-2-2-2-2-0
D2-2-2-3-2-2-2-2-3-2-2-2-2-3-2-2-2-2-0
G--------------------------------------3 X2
B--------------------------------------3
E--------------------------------------3
VERSE
E2-2-M-M-3-3-0-0-0------
A2-2-M-M-3-3-0-0-0------
D2-2-M-M-3-3-0-0-0-3-2-0  X2
G-----------------------3
B-----------------------3
E-----------------------3

CHORUS

VERSE

BRIGE
E2--2-2 
A2--2-2
D2--2-2
G--------3
B--------3
E--------3
verse2 
E2-2-M-M-3-3-0-0-0-3-2-0 |-------------|
A2-2-M-M-3-3-0-0-0       |-------------|
D2-2-M-M-3-3-0-0-0       |-------------|
G-----------------------3|--------3----|
B-----------------------3|---------3--3|
E-----------------------3|----------3--|
CHORSE 

:: Ultimate Guitar Archive :: 
http://www.ultimate-guitar.com 



Comments