Andy Stochansky - House Of Gold Live Chords & Tabs

 

House Of Gold Live Chords & Tabs

Andy Stochansky Chords & Tabs

Version: 1 Type: Tab 0 ratings
1 star 2 stars 3 stars 4 stars 5 stars
comments

House Of Gold Live Tab

   
House of Gold: Andy Stochansky
Off of the Shine EP
Saw him play in Hamilton, great show live.
Tabbed by Christopher Spyrou
February 13th 2005.

Listen to the song to get the # of repeats down.

Capo 3rd Fret.


INTRO
Part A. & Part B.

Part A:
||--0-0-----------0-----0-0---------------------|
||----------------------------------------------|
||------2h4-4-2----2--------2h4-4---2-2-2-------|
||--------------2----2------------2-------------|
||-0-0-0---0-0-0-0--0--0-0-0---0-0-0-0-0--------|
||----------------------------------------------|
[ Tab from: http://www.guitartabs.cc/tabs/a/andy_stochansky/house_of_gold_live_tab.html ]
Part B:
||----------------------------------------------|
||----------------------------------------------|
||--2-2-2-2-2-2-2-2-2-2-2-2-2-2-----------------|
||-------------0-0-0-0-0-0-0--------------------|
||---------0-0---------------2------------------|
||-2-2-4-4--------------------------------------|


Part A:
If I had a house of gold...


Part B:
I'd see them point, and stare and call...

Part C:
(just before)  Again I fall..


||----------------------------------------------|
||----------------------------------------------|
||--2-2-2-2-2-2-2-------------------------------|
||-0-0------------------------------------------|
||-----4-4-2-2-0-0------------------------------|
||----------------------------------------------|

Part D:
Just before the end of the song.
(Not the exact same as the live version but close enough to sound good)

||----------------------------------------------|
||----------------------------------------------|
||--2-2-2-2-2-2-2-2-2-2-2-2-2-2-2-2-------------|
||-0-0-0---2-2-2-2------------------------------|
||-------4-----------------0-0-0-0--------------|
||-----------------2-2-2-2----------------------|
Comments